  0
SECTION
  2
HEADER
  9
$ACADVER
  1
AC1014
  9
$ACADMAINTVER
 70
     0
  9
$DWGCODEPAGE
  3
ANSI_932
  9
$INSBASE
 10
0.0
 20
0.0
 30
0.0
  9
$EXTMIN
 10
24.476887
 20
3.456464
 30
1.000000E+20
  9
$EXTMAX
 10
162.999181
 20
262.76794
 30
-1.000000E+20
  9
$LIMMIN
 10
24.476887
 20
3.456464
  9
$LIMMAX
 10
162.999181
 20
262.76794
  9
$ORTHOMODE
 70
     0
  9
$REGENMODE
 70
     1
  9
$FILLMODE
 70
     1
  9
$QTEXTMODE
 70
     0
  9
$MIRRTEXT
 70
     1
  9
$DRAGMODE
 70
     2
  9
$LTSCALE
 40
1.0
  9
$OSMODE
 70
     0
  9
$ATTMODE
 70
     1
  9
$TEXTSIZE
 40
0.2
  9
$TRACEWID
 40
0.05
  9
$TEXTSTYLE
  7
STANDARD
  9
$CLAYER
  8
0
  9
$CELTYPE
  6
CONTINUOUS
  9
$CECOLOR
 62
   256
  9
$CELTSCALE
 40
1.0
  9
$DELOBJ
 70
     1
  9
$DISPSILH
 70
     0
  9
$DIMSCALE
 40
1.0
  9
$DIMASZ
 40
0.18
  9
$DIMEXO
 40
0.0625
  9
$DIMDLI
 40
0.38
  9
$DIMRND
 40
0.0
  9
$DIMDLE
 40
0.0
  9
$DIMEXE
 40
0.18
  9
$DIMTP
 40
0.0
  9
$DIMTM
 40
0.0
  9
$DIMTXT
 40
0.18
  9
$DIMCEN
 40
0.09
  9
$DIMTSZ
 40
0.0
  9
$DIMTOL
 70
     0
  9
$DIMLIM
 70
     0
  9
$DIMTIH
 70
     1
  9
$DIMTOH
 70
     1
  9
$DIMSE1
 70
     0
  9
$DIMSE2
 70
     0
  9
$DIMTAD
 70
     0
  9
$DIMZIN
 70
     0
  9
$DIMBLK
  1

  9
$DIMASO
 70
     1
  9
$DIMSHO
 70
     1
  9
$DIMPOST
  1

  9
$DIMAPOST
  1

  9
$DIMALT
 70
     0
  9
$DIMALTD
 70
     2
  9
$DIMALTF
 40
25.4
  9
$DIMLFAC
 40
1.0
  9
$DIMTOFL
 70
     0
  9
$DIMTVP
 40
0.0
  9
$DIMTIX
 70
     0
  9
$DIMSOXD
 70
     0
  9
$DIMSAH
 70
     0
  9
$DIMBLK1
  1

  9
$DIMBLK2
  1

  9
$DIMSTYLE
  2
STANDARD
  9
$DIMCLRD
 70
     0
  9
$DIMCLRE
 70
     0
  9
$DIMCLRT
 70
     0
  9
$DIMTFAC
 40
1.0
  9
$DIMGAP
 40
0.09
  9
$DIMJUST
 70
     0
  9
$DIMSD1
 70
     0
  9
$DIMSD2
 70
     0
  9
$DIMTOLJ
 70
     1
  9
$DIMTZIN
 70
     0
  9
$DIMALTZ
 70
     0
  9
$DIMALTTZ
 70
     0
  9
$DIMFIT
 70
     3
  9
$DIMUPT
 70
     0
  9
$DIMUNIT
 70
     2
  9
$DIMDEC
 70
     4
  9
$DIMTDEC
 70
     4
  9
$DIMALTU
 70
     2
  9
$DIMALTTD
 70
     2
  9
$DIMTXSTY
  7
STANDARD
  9
$DIMAUNIT
 70
     0
  9
$LUNITS
 70
     2
  9
$LUPREC
 70
     4
  9
$SKETCHINC
 40
0.1
  9
$FILLETRAD
 40
0.0
  9
$AUNITS
 70
     0
  9
$AUPREC
 70
     0
  9
$MENU
  1
acad
  9
$ELEVATION
 40
0.0
  9
$PELEVATION
 40
0.0
  9
$THICKNESS
 40
0.0
  9
$LIMCHECK
 70
     0
  9
$BLIPMODE
 70
     1
  9
$CHAMFERA
 40
0.0
  9
$CHAMFERB
 40
0.0
  9
$CHAMFERC
 40
0.0
  9
$CHAMFERD
 40
0.0
  9
$SKPOLY
 70
     0
  9
$TDCREATE
 40
0.000000000
  9
$TDUPDATE
 40
0.000000000
  9
$TDINDWG
 40
0.0000000000
  9
$TDUSRTIMER
 40
0.0000000000
  9
$USRTIMER
 70
     1
  9
$ANGBASE
 50
0.0
  9
$ANGDIR
 70
     0
  9
$PDMODE
 70
     0
  9
$PDSIZE
 40
0.0
  9
$PLINEWID
 40
0.0
  9
$COORDS
 70
     0
  9
$SPLFRAME
 70
     0
  9
$SPLINETYPE
 70
     6
  9
$SPLINESEGS
 70
     8
  9
$ATTDIA
 70
     0
  9
$ATTREQ
 70
     1
  9
$HANDLING
 70
     1
  9
$HANDSEED
  5
10F
  9
$SURFTAB1
 70
     6
  9
$SURFTAB2
 70
     6
  9
$SURFTYPE
 70
     6
  9
$SURFU
 70
     6
  9
$SURFV
 70
     6
  9
$UCSNAME
  2

  9
$UCSORG
 10
0.0
 20
0.0
 30
0.0
  9
$UCSXDIR
 10
1.0
 20
0.0
 30
0.0
  9
$UCSYDIR
 10
0.0
 20
1.0
 30
0.0
  9
$PUCSNAME
  2

  9
$PUCSORG
 10
0.0
 20
0.0
 30
0.0
  9
$PUCSXDIR
 10
1.0
 20
0.0
 30
0.0
  9
$PUCSYDIR
 10
0.0
 20
1.0
 30
0.0
  9
$USERI1
 70
     0
  9
$USERI2
 70
     0
  9
$USERI3
 70
     0
  9
$USERI4
 70
     0
  9
$USERI5
 70
     0
  9
$USERR1
 40
0.0
  9
$USERR2
 40
0.0
  9
$USERR3
 40
0.0
  9
$USERR4
 40
0.0
  9
$USERR5
 40
0.0
  9
$WORLDVIEW
 70
     1
  9
$SHADEDGE
 70
     3
  9
$SHADEDIF
 70
    70
  9
$TILEMODE
 70
     1
  9
$MAXACTVP
 70
    16
  9
$PINSBASE
 10
0.0
 20
0.0
 30
0.0
  9
$PLIMCHECK
 70
     0
  9
$PEXTMIN
 10
1.000000E+20
 20
1.000000E+20
 30
1.000000E+20
  9
$PEXTMAX
 10
-1.000000E+20
 20
-1.000000E+20
 30
-1.000000E+20
  9
$PLIMMIN
 10
0.0
 20
0.0
  9
$PLIMMAX
 10
12.0
 20
9.0
  9
$UNITMODE
 70
     0
  9
$VISRETAIN
 70
     0
  9
$PLINEGEN
 70
     1
  9
$PSLTSCALE
 70
     0
  9
$TREEDEPTH
 70
  3020
  9
$PICKSTYLE
 70
     1
  9
$CMLSTYLE
  2
STANDARD
  9
$CMLJUST
 70
     0
  9
$CMLSCALE
 40
1.0
  9
$PROXYGRAPHICS
 70
     0
  9
$MEASUREMENT
 70
     0
  0
ENDSEC
  0
SECTION
  2
CLASSES
  0
CLASS
  1
LWPOLYLINE
  2
AcDbPolyline
  3
"AutoCAD"
 90
        0
280
     0
281
     1
  0
CLASS
  1
IMAGE
  2
AcDbRasterImage
  3
ISM
 90
      127
280
     0
281
     1
  0
CLASS
  1
OLE2FRAME
  2
AcDbOle2Frame
  3
""
 90
        0
280
     0
281
     1
  0
CLASS
  1
HATCH
  2
AcDbHatch
  3
"ACAD_SEDONA"
 90
        0
280
     0
281
     1
  0
CLASS
  1
DICTIONARYVAR
  2
AcDbDictionaryVar
  3
"AutoCAD"
 90
        0
280
     0
281
     0
  0
CLASS
  1
RASTERVARIABLES
  2
AcDbRasterVariables
  3
ISM
 90
        0
280
     0
281
     0
  0
CLASS
  1
IMAGEDEF
  2
AcDbRasterImageDef
  3
ISM
 90
        0
280
     0
281
     0
  0
CLASS
  1
IMAGEDEF_REACTOR
  2
AcDbRasterImageDefReactor
  3
ISM
 90
        1
280
     0
281
     0
  0
CLASS
  1
IDBUFFER
  2
AcDbIdBuffer
  3
"Acad"
 90
        0
280
     0
281
     0
  0
CLASS
  1
SPATIAL_FILTER
  2
AcDbSpatialFilter
  3
"Acad"
 90
        0
280
     0
281
     0
  0
CLASS
  1
XRECORD
  2
AcDbXrecord
  3
"<Built In>"
 90
        0
280
     0
281
     0
  0
CLASS
  1
SORTENTSTABLE
  2
AcDbSortentsTable
  3
"AutoCAD"
 90
        0
280
     0
281
     0
  0
CLASS
  1
LAYER_INDEX
  2
AcDbLayerIndex
  3
"Acad"
 90
        0
280
     0
281
     0
  0
CLASS
  1
SPATIAL_INDEX
  2
AcDbSpatialIndex
  3
"Acad"
 90
        0
280
     0
281
     0
  0
CLASS
  1
OBJECT_PTR
  2
CAseDLPNTableRecord
  3
"ASE-LPNTableRecord"
 90
        1
280
     0
281
     0
  0
CLASS
  1
LAYOUT
  2
AcDbLayout
  3
"AutoCAD 2000"
 90
        1
280
     0
281
     0
  0
CLASS
  1
PLOTSETTINGS
  2
AcDbPlotSettings
  3
"AutoCAD 2000"
 90
        1
280
     0
281
     0
  0
CLASS
  1
ACDBDICTIONARYWDFLT
  2
AcDbDictionaryWithDefault
  3
"AutoCAD 2000"
 90
        1
280
     0
281
     0
  0
CLASS
  1
ACDBPLACEHOLDER
  2
AcDbPlaceHolder
  3
"AutoCAD 2000"
 90
        1
280
     0
281
     0
  0
CLASS
  1
VBA_PROJECT
  2
AcDbVbaProject
  3
"acadvba"
 90
        1
280
     0
281
     0
  0
CLASS
  1
WIPEOUT
  2
AcDbWipeout
  3
WipeOut|AutoCAD Express Tool|expresstools@autodesk.com
 90
      127
280
     0
281
     1
  0
CLASS
  1
WIPEOUTVARIABLES
  2
AcDbWipeoutVariables
  3
WipeOut|AutoCAD Express Tool|expresstools@autodesk.com
 90
        0
280
     0
281
     0
  0
CLASS
  1
RTEXT
  2
RText
  3
RText|AutoCAD Express Tool|expresstools@autodesk.com
 90
        0
280
     0
281
     1
  0
CLASS
  1
ARCALIGNEDTEXT
  2
AcDbArcAlignedText
  3
ATEXT|AutoCAD Express Tool|expresstools@autodesk.com
 90
        0
280
     0
281
     1
  0
ENDSEC
  0
SECTION
  2
TABLES
  0
TABLE
  2
VPORT
  5
7
100
AcDbSymbolTable
 70
     1
  0
VPORT
  5
15
100
AcDbSymbolTableRecord
100
AcDbViewportTableRecord
  2
*ACTIVE
 70
     0
 10
0.0
 20
0.0
 11
1.0
 21
1.0
 12
6.591288
 22
4.579184
 13
0.0
 23
0.0
 14
1.0
 24
1.0
 15
0.0
 25
0.0
 16
0.0
 26
0.0
 36
1.0
 17
0.0
 27
0.0
 37
0.0
 40
9.158369
 41
0.688564
 42
50.0
 43
0.0
 44
0.0
 50
0.0
 51
0.0
 71
     0
 72
   100
 73
     1
 74
     1
 75
     0
 76
     0
 77
     0
 78
     0
  0
ENDTAB
  0
TABLE
  2
LTYPE
  5
4
100
AcDbSymbolTable
 70
     3
  0
LTYPE
  5
11
100
AcDbSymbolTableRecord
100
AcDbLinetypeTableRecord
  2
BYBLOCK
 70
    64
  3

 72
    65
 73
     0
 40
0.0
  0
LTYPE
  5
12
100
AcDbSymbolTableRecord
100
AcDbLinetypeTableRecord
  2
BYLAYER
 70
    64
  3

 72
    65
 73
     0
 40
0.0
  0
LTYPE
  5
13
100
AcDbSymbolTableRecord
100
AcDbLinetypeTableRecord
  2
CONTINUOUS
 70
    64
  3
Solid line
 72
    65
 73
     0
 40
0.0
  0
ENDTAB
  0
TABLE
  2
LAYER
  5
2
100
AcDbSymbolTable
 70
     2
  0
LAYER
  5
14
100
AcDbSymbolTableRecord
100
AcDbLayerTableRecord
  2
0
 70
     0
 62
     7
  6
CONTINUOUS
  0
LAYER
  5
21
100
AcDbSymbolTableRecord
100
AcDbLayerTableRecord
  2
LAYER_1
 70
     0
 62
   160
  6
CONTINUOUS
  0
ENDTAB
  0
TABLE
  2
STYLE
  5
3
100
AcDbSymbolTable
 70
     5
  0
STYLE
  5
17
100
AcDbSymbolTableRecord
100
AcDbTextStyleTableRecord
  2
STANDARD
 70
     0
 40
0.0
 41
1.0
 50
0.0
 71
     0
 42
0.0
  3
txt
  4

  0
STYLE
  5
1D
100
AcDbSymbolTableRecord
100
AcDbTextStyleTableRecord
  2
STD
 70
     0
 40
0.0
 41
1.0
 50
0.0
 71
     0
 42
0.0
  3
txt
  4

  0
STYLE
  5
1E
100
AcDbSymbolTableRecord
100
AcDbTextStyleTableRecord
  2
TATESTD
 70
     4
 40
0.0
 41
1.0
 50
0.0
 71
     0
 42
0.0
  3
txt
  4

  0
STYLE
  5
1F
100
AcDbSymbolTableRecord
100
AcDbTextStyleTableRecord
  2
KANJISTD
 70
     0
 40
0.0
 41
1.0
 50
0.0
 71
     0
 42
0.0
  3
txt
  4
extfont
  0
STYLE
  5
20
100
AcDbSymbolTableRecord
100
AcDbTextStyleTableRecord
  2
KANJITATE
 70
     4
 40
0.0
 41
1.0
 50
0.0
 71
     0
 42
0.0
  3
txt
  4
extfont
  0
ENDTAB
  0
TABLE
  2
VIEW
  5
5
100
AcDbSymbolTable
 70
     0
  0
ENDTAB
  0
TABLE
  2
UCS
  5
6
100
AcDbSymbolTable
 70
     0
  0
ENDTAB
  0
TABLE
  2
APPID
  5
8
100
AcDbSymbolTable
 70
     1
  0
APPID
  5
16
100
AcDbSymbolTableRecord
100
AcDbRegAppTableRecord
  2
ACAD
 70
     0
  0
ENDTAB
  0
TABLE
  2
DIMSTYLE
  5
9
100
AcDbSymbolTable
 70
     1
  0
DIMSTYLE
105
18
100
AcDbSymbolTableRecord
100
AcDbDimStyleTableRecord
  2
STANDARD
 70
     0
  3

  4

  5

  6

  7

 40
1.0
 41
0.18
 42
0.0625
 43
0.38
 44
0.18
 45
0.0
 46
0.0
 47
0.0
 48
0.0
 71
     0
 72
     0
 73
     1
 74
     1
 75
     0
 76
     0
 77
     0
 78
     0
140
0.18
141
0.09
142
0.0
143
25.4
144
1.0
145
0.0
146
1.0
147
0.09
170
     0
171
     2
172
     0
173
     0
174
     0
175
     0
176
     0
177
     0
178
     0
270
     2
271
     4
272
     4
273
     2
274
     2
275
     0
280
     0
281
     0
282
     0
283
     1
284
     0
285
     0
286
     0
287
     0
288
     0
340
17
  0
ENDTAB
  0
TABLE
  2
BLOCK_RECORD
  5
1
100
AcDbSymbolTable
 70
     1
  0
BLOCK_RECORD
  5
A
100
AcDbSymbolTableRecord
100
AcDbBlockTableRecord
  2
*MODEL_SPACE
  0
BLOCK_RECORD
  5
B
100
AcDbSymbolTableRecord
100
AcDbBlockTableRecord
  2
*PAPER_SPACE
  0
BLOCK_RECORD
  5
22
100
AcDbSymbolTableRecord
100
AcDbBlockTableRecord
  2
AI9-BLK1
  0
ENDTAB
  0
ENDSEC
  0
SECTION
  2
BLOCKS
  0
BLOCK
  5
D
100
AcDbEntity
  8
0
100
AcDbBlockBegin
  2
*MODEL_SPACE
 70
     0
 10
0.0
 20
0.0
 30
0.0
  3
*MODEL_SPACE
  1

  0
ENDBLK
  5
E
100
AcDbEntity
  8
0
100
AcDbBlockEnd
  0
BLOCK
  5
F
100
AcDbEntity
 67
     1
  8
0
100
AcDbBlockBegin
  2
*PAPER_SPACE
 70
     0
 10
0.0
 20
0.0
 30
0.0
  3
*PAPER_SPACE
  1

  0
ENDBLK
  5
10
100
AcDbEntity
 67
     1
  8
0
100
AcDbBlockEnd
  0
BLOCK
  5
24
100
AcDbEntity
  8
LAYER_1
 62
     7
100
AcDbBlockBegin
  2
AI9-BLK1
 70
     0
 10
0.0
 20
0.0
 30
0.0
  3
AI9-BLK1
  1

  0
HATCH
  5
40
100
AcDbEntity
  8
LAYER_1
 62
     7
100
AcDbHatch
 10
0.0
 20
0.0
 30
0.0
210
0.0
220
0.0
230
1.0
  2
SOLID
 70
     1
 71
     0
 91
        1
 92
        1
 93
        1
 72
     4
 94
        3
 73
     0
 74
     0
 95
       17
 96
       13
 40
0.0
 40
0.0
 40
0.0
 40
0.0
 40
1.0
 40
1.0
 40
1.0
 40
2.0
 40
2.0
 40
2.0
 40
3.0
 40
3.0
 40
3.0
 40
4.0
 40
4.0
 40
4.0
 40
4.0
 10
-24.353724500868054
 20
1.4689887152777776
 10
-24.353724500868054
 20
1.4689887152777776
 10
-24.353724500868054
 20
-1.1162109375
 10
-24.353724500868054
 20
-1.1162109375
 10
-24.353724500868054
 20
-1.1162109375
 10
-24.645868598090274
 20
-1.1162109375
 10
-24.645868598090274
 20
-1.1162109375
 10
-24.645868598090274
 20
-1.1162109375
 10
-24.645868598090274
 20
1.4689887152777776
 10
-24.645868598090274
 20
1.4689887152777776
 10
-24.645868598090274
 20
1.4689887152777776
 10
-24.353724500868054
 20
1.4689887152777776
 10
-24.353724500868054
 20
1.4689887152777776
 97
        0
 75
     0
 76
     1
 98
        1
 10
0.0
 20
0.0
  0
HATCH
  5
3F
100
AcDbEntity
  8
LAYER_1
 62
     7
100
AcDbHatch
 10
0.0
 20
0.0
 30
0.0
210
0.0
220
0.0
230
1.0
  2
SOLID
 70
     1
 71
     0
 91
        1
 92
        1
 93
        1
 72
     4
 94
        3
 73
     0
 74
     0
 95
       53
 96
       49
 40
0.0
 40
0.0
 40
0.0
 40
0.0
 40
1.0
 40
1.0
 40
1.0
 40
2.0
 40
2.0
 40
2.0
 40
3.0
 40
3.0
 40
3.0
 40
4.0
 40
4.0
 40
4.0
 40
5.0
 40
5.0
 40
5.0
 40
6.0
 40
6.0
 40
6.0
 40
7.0
 40
7.0
 40
7.0
 40
8.0
 40
8.0
 40
8.0
 40
9.0
 40
9.0
 40
9.0
 40
10.0
 40
10.0
 40
10.0
 40
11.0
 40
11.0
 40
11.0
 40
12.0
 40
12.0
 40
12.0
 40
13.0
 40
13.0
 40
13.0
 40
14.0
 40
14.0
 40
14.0
 40
15.0
 40
15.0
 40
15.0
 40
16.0
 40
16.0
 40
16.0
 40
16.0
 10
-23.856769476996526
 20
0.6972873263888888
 10
-23.856769476996526
 20
0.6972873263888888
 10
-23.601660156249999
 20
0.6972873263888888
 10
-23.601660156249999
 20
0.6972873263888888
 10
-23.601660156249999
 20
0.6972873263888888
 10
-23.609239366319443
 20
0.4506184895833333
 10
-23.609239366319443
 20
0.4506184895833333
 10
-23.609239366319443
 20
0.4506184895833333
 10
-23.601660156249999
 20
0.4451063368055555
 10
-23.601660156249999
 20
0.4451063368055555
 10
-23.520872667100694
 20
0.6280409071180555
 10
-23.319851345486111
 20
0.7193359374999999
 10
-22.998940700954858
 20
0.7193359374999999
 10
-22.739869520399303
 20
0.7193359374999999
 10
-22.564514160156246
 20
0.6742051866319444
 10
-22.472874620225692
 20
0.5835991753472222
 10
-22.381235080295138
 20
0.4933376736111111
 10
-22.335415310329861
 20
0.3200493706597222
 10
-22.335415310329861
 20
0.0637342664930556
 10
-22.335415310329861
 20
0.0637342664930556
 10
-22.335415310329861
 20
-1.1162109375
 10
-22.335415310329861
 20
-1.1162109375
 10
-22.335415310329861
 20
-1.1162109375
 10
-22.599998643663191
 20
-1.1162109375
 10
-22.599998643663191
 20
-1.1162109375
 10
-22.599998643663191
 20
-1.1162109375
 10
-22.599998643663191
 20
0.0409966362847222
 10
-22.599998643663191
 20
0.0409966362847222
 10
-22.599998643663191
 20
0.0409966362847222
 10
-22.599998643663191
 20
0.1092095269097222
 10
-22.599998643663191
 20
0.1092095269097222
 10
-22.599998643663191
 20
0.2628607855902778
 10
-22.629798719618055
 20
0.3662136501736111
 10
-22.689226616753469
 20
0.4192681206597222
 10
-22.748654513888887
 20
0.4723225911458333
 10
-22.86320393880208
 20
0.4988498263888889
 10
-23.032530381944444
 20
0.4988498263888889
 10
-23.405634223090274
 20
0.4988498263888889
 10
-23.592186143663191
 20
0.3241834852430555
 10
-23.592186143663191
 20
-0.0254937065972222
 10
-23.592186143663191
 20
-0.0254937065972222
 10
-23.592186143663191
 20
-1.1162109375
 10
-23.592186143663191
 20
-1.1162109375
 10
-23.592186143663191
 20
-1.1162109375
 10
-23.856769476996526
 20
-1.1162109375
 10
-23.856769476996526
 20
-1.1162109375
 10
-23.856769476996526
 20
-1.1162109375
 10
-23.856769476996526
 20
0.6972873263888888
 10
-23.856769476996526
 20
0.6972873263888888
 97
        0
 75
     0
 76
     1
 98
        1
 10
0.0
 20
0.0
  0
HATCH
  5
3E
100
AcDbEntity
  8
LAYER_1
 62
     7
100
AcDbHatch
 10
0.0
 20
0.0
 30
0.0
210
0.0
220
0.0
230
1.0
  2
SOLID
 70
     1
 71
     0
 91
        1
 92
        1
 93
        1
 72
     4
 94
        3
 73
     0
 74
     0
 95
       53
 96
       49
 40
0.0
 40
0.0
 40
0.0
 40
0.0
 40
1.0
 40
1.0
 40
1.0
 40
2.0
 40
2.0
 40
2.0
 40
3.0
 40
3.0
 40
3.0
 40
4.0
 40
4.0
 40
4.0
 40
5.0
 40
5.0
 40
5.0
 40
6.0
 40
6.0
 40
6.0
 40
7.0
 40
7.0
 40
7.0
 40
8.0
 40
8.0
 40
8.0
 40
9.0
 40
9.0
 40
9.0
 40
10.0
 40
10.0
 40
10.0
 40
11.0
 40
11.0
 40
11.0
 40
12.0
 40
12.0
 40
12.0
 40
13.0
 40
13.0
 40
13.0
 40
14.0
 40
14.0
 40
14.0
 40
15.0
 40
15.0
 40
15.0
 40
16.0
 40
16.0
 40
16.0
 40
16.0
 10
-21.768697102864582
 20
-1.1162109375
 10
-21.768697102864582
 20
-1.1162109375
 10
-21.768697102864582
 20
0.4768012152777778
 10
-21.768697102864582
 20
0.4768012152777778
 10
-21.768697102864582
 20
0.4768012152777778
 10
-22.044304741753471
 20
0.4768012152777778
 10
-22.044304741753471
 20
0.4768012152777778
 10
-22.044304741753471
 20
0.4768012152777778
 10
-22.044304741753471
 20
0.6972873263888888
 10
-22.044304741753471
 20
0.6972873263888888
 10
-22.044304741753471
 20
0.6972873263888888
 10
-21.768697102864582
 20
0.6972873263888888
 10
-21.768697102864582
 20
0.6972873263888888
 10
-21.768697102864582
 20
0.6972873263888888
 10
-21.768697102864582
 20
0.9653157552083332
 10
-21.768697102864582
 20
0.9653157552083332
 10
-21.768697102864582
 20
1.3194715711805554
 10
-21.586279296874999
 20
1.4965494791666665
 10
-21.221271430121526
 20
1.4965494791666665
 10
-21.167011176215276
 20
1.4965494791666665
 10
-21.103276909722219
 20
1.4917263454861109
 10
-21.030068630642358
 20
1.4824245876736111
 10
-21.030068630642358
 20
1.4824245876736111
 10
-21.030068630642358
 20
1.2633165147569443
 10
-21.030068630642358
 20
1.2633165147569443
 10
-21.116023763020831
 20
1.271584743923611
 10
-21.178552246093748
 20
1.2760633680555555
 10
-21.217826334635415
 20
1.2760633680555555
 10
-21.408684624565971
 20
1.2760633680555555
 10
-21.504113769531248
 20
1.1806342230902778
 10
-21.504113769531248
 20
0.9897759331597221
 10
-21.504113769531248
 20
0.9897759331597221
 10
-21.504113769531248
 20
0.6972873263888888
 10
-21.504113769531248
 20
0.6972873263888888
 10
-21.504113769531248
 20
0.6972873263888888
 10
-21.030068630642358
 20
0.6972873263888888
 10
-21.030068630642358
 20
0.6972873263888888
 10
-21.030068630642358
 20
0.6972873263888888
 10
-21.030068630642358
 20
0.4768012152777778
 10
-21.030068630642358
 20
0.4768012152777778
 10
-21.030068630642358
 20
0.4768012152777778
 10
-21.504113769531248
 20
0.4768012152777778
 10
-21.504113769531248
 20
0.4768012152777778
 10
-21.504113769531248
 20
0.4768012152777778
 10
-21.504113769531248
 20
-1.1162109375
 10
-21.504113769531248
 20
-1.1162109375
 10
-21.504113769531248
 20
-1.1162109375
 10
-21.768697102864582
 20
-1.1162109375
 10
-21.768697102864582
 20
-1.1162109375
 97
        0
 75
     0
 76
     1
 98
        1
 10
0.0
 20
0.0
  0
HATCH
  5
3D
100
AcDbEntity
  8
LAYER_1
 62
     7
100
AcDbHatch
 10
0.0
 20
0.0
 30
0.0
210
0.0
220
0.0
230
1.0
  2
SOLID
 70
     1
 71
     0
 91
        1
 92
        1
 93
        1
 72
     4
 94
        3
 73
     0
 74
     0
 95
       47
 96
       43
 40
0.0
 40
0.0
 40
0.0
 40
0.0
 40
1.0
 40
1.0
 40
1.0
 40
2.0
 40
2.0
 40
2.0
 40
3.0
 40
3.0
 40
3.0
 40
4.0
 40
4.0
 40
4.0
 40
5.0
 40
5.0
 40
5.0
 40
6.0
 40
6.0
 40
6.0
 40
7.0
 40
7.0
 40
7.0
 40
8.0
 40
8.0
 40
8.0
 40
9.0
 40
9.0
 40
9.0
 40
10.0
 40
10.0
 40
10.0
 40
11.0
 40
11.0
 40
11.0
 40
12.0
 40
12.0
 40
12.0
 40
13.0
 40
13.0
 40
13.0
 40
14.0
 40
14.0
 40
14.0
 40
14.0
 10
-20.768413628472221
 20
0.6972873263888888
 10
-20.768413628472221
 20
0.6972873263888888
 10
-20.503830295138886
 20
0.6972873263888888
 10
-20.503830295138886
 20
0.6972873263888888
 10
-20.503830295138886
 20
0.6972873263888888
 10
-20.530185275607636
 20
0.4881700303819444
 10
-20.530185275607636
 20
0.4881700303819444
 10
-20.530185275607636
 20
0.4881700303819444
 10
-20.524500868055554
 20
0.4823133680555555
 10
-20.524500868055554
 20
0.4823133680555555
 10
-20.419769965277776
 20
0.6514675564236111
 10
-20.246998426649302
 20
0.7358723958333333
 10
-20.005841742621527
 20
0.7358723958333333
 10
-19.672701009114583
 20
0.7358723958333333
 10
-19.506130642361111
 20
0.5643066406249999
 10
-19.506130642361111
 20
0.2215196397569444
 10
-19.506130642361111
 20
0.2215196397569444
 10
-19.507164171006941
 20
0.0964626736111111
 10
-19.507164171006941
 20
0.0964626736111111
 10
-19.507164171006941
 20
0.0964626736111111
 10
-19.768646918402776
 20
0.0964626736111111
 10
-19.768646918402776
 20
0.0964626736111111
 10
-19.768646918402776
 20
0.0964626736111111
 10
-19.764168294270831
 20
0.1415934244791667
 10
-19.764168294270831
 20
0.1415934244791667
 10
-19.761239963107638
 20
0.1894802517361111
 10
-19.759689670138886
 20
0.2215196397569444
 10
-19.759689670138886
 20
0.2380560980902778
 10
-19.759689670138886
 20
0.4227132161458333
 10
-19.860458713107636
 20
0.5153862847222221
 10
-20.061824544270831
 20
0.5153862847222221
 10
-20.356552463107636
 20
0.5153862847222221
 10
-20.503830295138886
 20
0.3334852430555556
 10
-20.503830295138886
 20
-0.0306613498263889
 10
-20.503830295138886
 20
-0.0306613498263889
 10
-20.503830295138886
 20
-1.1162109375
 10
-20.503830295138886
 20
-1.1162109375
 10
-20.503830295138886
 20
-1.1162109375
 10
-20.768413628472221
 20
-1.1162109375
 10
-20.768413628472221
 20
-1.1162109375
 10
-20.768413628472221
 20
-1.1162109375
 10
-20.768413628472221
 20
0.6972873263888888
 10
-20.768413628472221
 20
0.6972873263888888
 97
        0
 75
     0
 76
     1
 98
        1
 10
0.0
 20
0.0
  0
HATCH
  5
3C
100
AcDbEntity
  8
LAYER_1
 62
     7
100
AcDbHatch
 10
0.0
 20
0.0
 30
0.0
210
0.0
220
0.0
230
1.0
  2
SOLID
 70
     1
 71
     0
 91
        2
 92
       16
 93
        1
 72
     4
 94
        3
 73
     0
 74
     0
 95
       26
 96
       22
 40
0.0
 40
0.0
 40
0.0
 40
0.0
 40
1.0
 40
1.0
 40
1.0
 40
2.0
 40
2.0
 40
2.0
 40
3.0
 40
3.0
 40
3.0
 40
4.0
 40
4.0
 40
4.0
 40
5.0
 40
5.0
 40
5.0
 40
6.0
 40
6.0
 40
6.0
 40
7.0
 40
7.0
 40
7.0
 40
7.0
 10
-18.528240288628471
 20
-0.2177300347222222
 10
-18.730295138888888
 20
-0.2177300347222222
 10
-18.861725531684026
 20
-0.2394341362847222
 10
-18.922531467013886
 20
-0.2824978298611111
 10
-18.98333740234375
 20
-0.3255615234374999
 10
-19.013826497395833
 20
-0.4178900824652778
 10
-19.013826497395833
 20
-0.5601725260416666
 10
-19.013826497395833
 20
-0.7072781032986111
 10
-18.983681911892358
 20
-0.8044297960069444
 10
-18.923564995659721
 20
-0.8519721137152777
 10
-18.863275824652774
 20
-0.899514431423611
 10
-18.740974934895831
 20
-0.9232855902777777
 10
-18.556490071614583
 20
-0.9232855902777777
 10
-18.185281032986108
 20
-0.9232855902777777
 10
-17.999590386284719
 20
-0.8092529296875
 10
-17.999590386284719
 20
-0.5808430989583333
 10
-17.999590386284719
 20
-0.4378716362847222
 10
-18.035591634114581
 20
-0.3414089626736111
 10
-18.107766384548608
 20
-0.2917995876736111
 10
-18.179941134982638
 20
-0.2425347222222222
 10
-18.320156521267361
 20
-0.2177300347222222
 10
-18.528240288628471
 20
-0.2177300347222222
 97
        0
 92
        1
 93
        1
 72
     4
 94
        3
 73
     0
 74
     0
 95
       65
 96
       61
 40
0.0
 40
0.0
 40
0.0
 40
0.0
 40
1.0
 40
1.0
 40
1.0
 40
2.0
 40
2.0
 40
2.0
 40
3.0
 40
3.0
 40
3.0
 40
4.0
 40
4.0
 40
4.0
 40
5.0
 40
5.0
 40
5.0
 40
6.0
 40
6.0
 40
6.0
 40
7.0
 40
7.0
 40
7.0
 40
8.0
 40
8.0
 40
8.0
 40
9.0
 40
9.0
 40
9.0
 40
10.0
 40
10.0
 40
10.0
 40
11.0
 40
11.0
 40
11.0
 40
12.0
 40
12.0
 40
12.0
 40
13.0
 40
13.0
 40
13.0
 40
14.0
 40
14.0
 40
14.0
 40
15.0
 40
15.0
 40
15.0
 40
16.0
 40
16.0
 40
16.0
 40
17.0
 40
17.0
 40
17.0
 40
18.0
 40
18.0
 40
18.0
 40
19.0
 40
19.0
 40
19.0
 40
20.0
 40
20.0
 40
20.0
 40
20.0
 10
-18.956121148003472
 20
0.1901692708333333
 10
-18.956121148003472
 20
0.1901692708333333
 10
-19.219498697916666
 20
0.1901692708333333
 10
-19.219498697916666
 20
0.1901692708333333
 10
-19.219498697916666
 20
0.3989420572916667
 10
-19.171784125434026
 20
0.5395019531249999
 10
-19.076527235243052
 20
0.6115044487847222
 10
-18.981270345052081
 20
0.6831624348958333
 10
-18.794718424479164
 20
0.7193359374999999
 10
-18.516871473524304
 20
0.7193359374999999
 10
-18.215081108940971
 20
0.7193359374999999
 10
-18.011131456163191
 20
0.6752387152777777
 10
-17.905022515190971
 20
0.5866997612847221
 10
-17.799085828993054
 20
0.4985053168402777
 10
-17.746031358506944
 20
0.3300401475694444
 10
-17.746031358506944
 20
0.0819932725694444
 10
-17.746031358506944
 20
0.0819932725694444
 10
-17.746031358506944
 20
-1.1162109375
 10
-17.746031358506944
 20
-1.1162109375
 10
-17.746031358506944
 20
-1.1162109375
 10
-18.010614691840278
 20
-1.1162109375
 10
-18.010614691840278
 20
-1.1162109375
 10
-18.010614691840278
 20
-1.1162109375
 10
-17.989771864149304
 20
-0.9205295138888888
 10
-17.989771864149304
 20
-0.9205295138888888
 10
-17.989771864149304
 20
-0.9205295138888888
 10
-17.995456271701386
 20
-0.9188069661458332
 10
-17.995456271701386
 20
-0.9188069661458332
 10
-18.096397569444441
 20
-1.0686686197916666
 10
-18.30120849609375
 20
-1.1437717013888888
 10
-18.610233561197916
 20
-1.1437717013888888
 10
-19.066708713107637
 20
-1.1437717013888888
 10
-19.294946289062498
 20
-0.9598036024305555
 10
-19.294946289062498
 20
-0.5922119140625
 10
-19.294946289062498
 20
-0.3734483506944444
 10
-19.243786621093747
 20
-0.2222086588541667
 10
-19.141639539930555
 20
-0.1388373480902778
 10
-19.039492458767359
 20
-0.0554660373263889
 10
-18.854835340711805
 20
-0.0137803819444444
 10
-18.587495930989583
 20
-0.0137803819444444
 10
-18.269685872395833
 20
-0.0137803819444444
 10
-18.079344346788194
 20
-0.0754475911458333
 10
-18.016299099392359
 20
-0.1991265190972222
 10
-18.016299099392359
 20
-0.1991265190972222
 10
-18.010614691840278
 20
-0.1970594618055555
 10
-18.010614691840278
 20
-0.1970594618055555
 10
-18.010614691840278
 20
-0.1970594618055555
 10
-18.010614691840278
 20
0.0230821397569444
 10
-18.010614691840278
 20
0.0230821397569444
 10
-18.010614691840278
 20
0.2290988498263889
 10
-18.039036729600692
 20
0.3627685546875
 10
-18.095880805121528
 20
0.4240912543402777
 10
-18.15272488064236
 20
0.4847249348958333
 10
-18.277265082465277
 20
0.5153862847222221
 10
-18.469501410590276
 20
0.5153862847222221
 10
-18.795579698350693
 20
0.5153862847222221
 10
-18.958704969618054
 20
0.4244357638888889
 10
-18.958704969618054
 20
0.2428792317708333
 10
-18.958704969618054
 20
0.2339219835069444
 10
-18.957843695746526
 20
0.2163519965277778
 10
-18.956121148003472
 20
0.1901692708333333
 97
        0
 75
     0
 76
     1
 98
        1
 10
0.0
 20
0.0
  0
HATCH
  5
3B
100
AcDbEntity
  8
LAYER_1
 62
     7
100
AcDbHatch
 10
0.0
 20
0.0
 30
0.0
210
0.0
220
0.0
230
1.0
  2
SOLID
 70
     1
 71
     0
 91
        1
 92
        1
 93
        1
 72
     4
 94
        3
 73
     0
 74
     0
 95
       47
 96
       43
 40
0.0
 40
0.0
 40
0.0
 40
0.0
 40
1.0
 40
1.0
 40
1.0
 40
2.0
 40
2.0
 40
2.0
 40
3.0
 40
3.0
 40
3.0
 40
4.0
 40
4.0
 40
4.0
 40
5.0
 40
5.0
 40
5.0
 40
6.0
 40
6.0
 40
6.0
 40
7.0
 40
7.0
 40
7.0
 40
8.0
 40
8.0
 40
8.0
 40
9.0
 40
9.0
 40
9.0
 40
10.0
 40
10.0
 40
10.0
 40
11.0
 40
11.0
 40
11.0
 40
12.0
 40
12.0
 40
12.0
 40
13.0
 40
13.0
 40
13.0
 40
14.0
 40
14.0
 40
14.0
 40
14.0
 10
-17.213075086805553
 20
0.6972873263888888
 10
-17.213075086805553
 20
0.6972873263888888
 10
-16.948491753472222
 20
0.6972873263888888
 10
-16.948491753472222
 20
0.6972873263888888
 10
-16.948491753472222
 20
0.6972873263888888
 10
-16.974846733940971
 20
0.4881700303819444
 10
-16.974846733940971
 20
0.4881700303819444
 10
-16.974846733940971
 20
0.4881700303819444
 10
-16.969162326388886
 20
0.4823133680555555
 10
-16.969162326388886
 20
0.4823133680555555
 10
-16.864431423611109
 20
0.6514675564236111
 10
-16.691659884982638
 20
0.7358723958333333
 10
-16.450503200954859
 20
0.7358723958333333
 10
-16.117362467447915
 20
0.7358723958333333
 10
-15.950792100694443
 20
0.5643066406249999
 10
-15.950792100694443
 20
0.2215196397569444
 10
-15.950792100694443
 20
0.2215196397569444
 10
-15.951825629340277
 20
0.0964626736111111
 10
-15.951825629340277
 20
0.0964626736111111
 10
-15.951825629340277
 20
0.0964626736111111
 10
-16.213308376736109
 20
0.0964626736111111
 10
-16.213308376736109
 20
0.0964626736111111
 10
-16.213308376736109
 20
0.0964626736111111
 10
-16.208829752604164
 20
0.1415934244791667
 10
-16.208829752604164
 20
0.1415934244791667
 10
-16.20590142144097
 20
0.1894802517361111
 10
-16.204351128472222
 20
0.2215196397569444
 10
-16.204351128472222
 20
0.2380560980902778
 10
-16.204351128472222
 20
0.4227132161458333
 10
-16.305120171440972
 20
0.5153862847222221
 10
-16.506486002604166
 20
0.5153862847222221
 10
-16.801213921440972
 20
0.5153862847222221
 10
-16.948491753472222
 20
0.3334852430555556
 10
-16.948491753472222
 20
-0.0306613498263889
 10
-16.948491753472222
 20
-0.0306613498263889
 10
-16.948491753472222
 20
-1.1162109375
 10
-16.948491753472222
 20
-1.1162109375
 10
-16.948491753472222
 20
-1.1162109375
 10
-17.213075086805553
 20
-1.1162109375
 10
-17.213075086805553
 20
-1.1162109375
 10
-17.213075086805553
 20
-1.1162109375
 10
-17.213075086805553
 20
0.6972873263888888
 10
-17.213075086805553
 20
0.6972873263888888
 97
        0
 75
     0
 76
     1
 98
        1
 10
0.0
 20
0.0
  0
HATCH
  5
3A
100
AcDbEntity
  8
LAYER_1
 62
     7
100
AcDbHatch
 10
0.0
 20
0.0
 30
0.0
210
0.0
220
0.0
230
1.0
  2
SOLID
 70
     1
 71
     0
 91
        2
 92
       16
 93
        1
 72
     4
 94
        3
 73
     0
 74
     0
 95
       23
 96
       19
 40
0.0
 40
0.0
 40
0.0
 40
0.0
 40
1.0
 40
1.0
 40
1.0
 40
2.0
 40
2.0
 40
2.0
 40
3.0
 40
3.0
 40
3.0
 40
4.0
 40
4.0
 40
4.0
 40
5.0
 40
5.0
 40
5.0
 40
6.0
 40
6.0
 40
6.0
 40
6.0
 10
-14.417207845052083
 20
-0.0523654513888889
 10
-14.417207845052083
 20
-0.0523654513888889
 10
-14.419102647569444
 20
0.0323838975694444
 10
-14.419102647569444
 20
0.0323838975694444
 10
-14.419102647569444
 20
0.2266872829861111
 10
-14.451314290364582
 20
0.3531222873263888
 10
-14.51573757595486
 20
0.4113444010416666
 10
-14.580160861545137
 20
0.4695665147569444
 10
-14.719170464409721
 20
0.4988498263888889
 10
-14.932594129774305
 20
0.4988498263888889
 10
-15.147395833333333
 20
0.4988498263888889
 10
-15.286749945746527
 20
0.4647433810763889
 10
-15.350484212239582
 20
0.3961859809027777
 10
-15.414218478732638
 20
0.3279730902777778
 10
-15.446085611979166
 20
0.1784559461805556
 10
-15.446085611979166
 20
-0.0523654513888889
 10
-15.446085611979166
 20
-0.0523654513888889
 10
-14.417207845052083
 20
-0.0523654513888889
 10
-14.417207845052083
 20
-0.0523654513888889
 97
        0
 92
        1
 93
        1
 72
     4
 94
        3
 73
     0
 74
     0
 95
       56
 96
       52
 40
0.0
 40
0.0
 40
0.0
 40
0.0
 40
1.0
 40
1.0
 40
1.0
 40
2.0
 40
2.0
 40
2.0
 40
3.0
 40
3.0
 40
3.0
 40
4.0
 40
4.0
 40
4.0
 40
5.0
 40
5.0
 40
5.0
 40
6.0
 40
6.0
 40
6.0
 40
7.0
 40
7.0
 40
7.0
 40
8.0
 40
8.0
 40
8.0
 40
9.0
 40
9.0
 40
9.0
 40
10.0
 40
10.0
 40
10.0
 40
11.0
 40
11.0
 40
11.0
 40
12.0
 40
12.0
 40
12.0
 40
13.0
 40
13.0
 40
13.0
 40
14.0
 40
14.0
 40
14.0
 40
15.0
 40
15.0
 40
15.0
 40
16.0
 40
16.0
 40
16.0
 40
17.0
 40
17.0
 40
17.0
 40
17.0
 10
-14.417207845052083
 20
-0.5705078124999999
 10
-14.417207845052083
 20
-0.5705078124999999
 10
-14.146251085069443
 20
-0.5705078124999999
 10
-14.146251085069443
 20
-0.5705078124999999
 10
-14.146251085069443
 20
-0.5705078124999999
 10
-14.146423339843748
 20
-0.6366536458333333
 10
-14.146423339843748
 20
-0.6366536458333333
 10
-14.146423339843748
 20
-0.824755859375
 10
-14.203439670138888
 20
-0.9560139973958333
 10
-14.317472330729165
 20
-1.0311170789930555
 10
-14.431504991319443
 20
-1.1062201605902777
 10
-14.631665039062499
 20
-1.1437717013888888
 10
-14.91760796440972
 20
-1.1437717013888888
 10
-15.250231933593749
 20
-1.1437717013888888
 10
-15.468650987413193
 20
-1.0827935112847222
 10
-15.572520616319443
 20
-0.9611816406249999
 10
-15.676562499999999
 20
-0.8392252604166666
 10
-15.728411187065971
 20
-0.5832546657986111
 10
-15.728411187065971
 20
-0.1932698567708333
 10
-15.728411187065971
 20
0.1677761501736111
 10
-15.676045735677082
 20
0.4099663628472222
 10
-15.571314832899304
 20
0.5336452907986111
 10
-15.466583930121526
 20
0.6573242187499999
 10
-15.261600748697916
 20
0.7193359374999999
 10
-14.95636528862847
 20
0.7193359374999999
 10
-14.623224555121526
 20
0.7193359374999999
 10
-14.404977756076388
 20
0.6659369574652777
 10
-14.301452636718748
 20
0.5591389973958333
 10
-14.198099772135416
 20
0.4523410373263889
 10
-14.146251085069443
 20
0.2277208116319444
 10
-14.146251085069443
 20
-0.1150661892361111
 10
-14.146251085069443
 20
-0.1150661892361111
 10
-14.146251085069443
 20
-0.2563151041666666
 10
-14.146251085069443
 20
-0.2563151041666666
 10
-14.146251085069443
 20
-0.2563151041666666
 10
-15.449875217013888
 20
-0.2563151041666666
 10
-15.449875217013888
 20
-0.2563151041666666
 10
-15.449875217013888
 20
-0.5432915581597222
 10
-15.419386121961804
 20
-0.7265706380208332
 10
-15.358063422309026
 20
-0.8051188151041666
 10
-15.296740722656249
 20
-0.884011501736111
 10
-15.153769259982637
 20
-0.9232855902777777
 10
-14.928804524739583
 20
-0.9232855902777777
 10
-14.715380859374999
 20
-0.9232855902777777
 10
-14.576715766059026
 20
-0.9046820746527777
 10
-14.512981499565971
 20
-0.8678195529513888
 10
-14.449247233072915
 20
-0.8306125217013888
 10
-14.417207845052083
 20
-0.7503417968749999
 10
-14.417207845052083
 20
-0.6273518880208333
 10
-14.417207845052083
 20
-0.6273518880208333
 10
-14.417207845052083
 20
-0.5705078124999999
 10
-14.417207845052083
 20
-0.5705078124999999
 97
        0
 75
     0
 76
     1
 98
        1
 10
0.0
 20
0.0
  0
HATCH
  5
39
100
AcDbEntity
  8
LAYER_1
 62
     7
100
AcDbHatch
 10
0.0
 20
0.0
 30
0.0
210
0.0
220
0.0
230
1.0
  2
SOLID
 70
     1
 71
     0
 91
        2
 92
       16
 93
        1
 72
     4
 94
        3
 73
     0
 74
     0
 95
       29
 96
       25
 40
0.0
 40
0.0
 40
0.0
 40
0.0
 40
1.0
 40
1.0
 40
1.0
 40
2.0
 40
2.0
 40
2.0
 40
3.0
 40
3.0
 40
3.0
 40
4.0
 40
4.0
 40
4.0
 40
5.0
 40
5.0
 40
5.0
 40
6.0
 40
6.0
 40
6.0
 40
7.0
 40
7.0
 40
7.0
 40
8.0
 40
8.0
 40
8.0
 40
8.0
 10
-12.991110568576389
 20
0.4988498263888889
 10
-13.186275227864583
 20
0.4988498263888889
 10
-13.315983072916666
 20
0.4537190755208333
 10
-13.380234103732638
 20
0.3634575737847222
 10
-13.444485134548611
 20
0.2735405815972222
 10
-13.476524522569443
 20
0.0909505208333333
 10
-13.476524522569443
 20
-0.1839680989583333
 10
-13.476524522569443
 20
-0.4864474826388888
 10
-13.44482964409722
 20
-0.6852294921875
 10
-13.381267632378471
 20
-0.7803141276041666
 10
-13.317705620659721
 20
-0.8757432725694444
 10
-13.185758463541665
 20
-0.9232855902777777
 10
-12.985426161024304
 20
-0.9232855902777777
 10
-12.767696126302083
 20
-0.9232855902777777
 10
-12.626102701822916
 20
-0.8757432725694444
 10
-12.560645887586805
 20
-0.7803141276041666
 10
-12.495189073350693
 20
-0.6852294921875
 10
-12.462288411458331
 20
-0.4781792534722222
 10
-12.462288411458331
 20
-0.1591634114583333
 10
-12.462288411458331
 20
0.09921875
 10
-12.498634168836805
 20
0.2735405815972222
 10
-12.570981174045137
 20
0.3634575737847222
 10
-12.643328179253471
 20
0.4537190755208333
 10
-12.783371310763888
 20
0.4988498263888889
 10
-12.991110568576389
 20
0.4988498263888889
 97
        0
 92
        1
 93
        1
 72
     4
 94
        3
 73
     0
 74
     0
 95
       44
 96
       40
 40
0.0
 40
0.0
 40
0.0
 40
0.0
 40
1.0
 40
1.0
 40
1.0
 40
2.0
 40
2.0
 40
2.0
 40
3.0
 40
3.0
 40
3.0
 40
4.0
 40
4.0
 40
4.0
 40
5.0
 40
5.0
 40
5.0
 40
6.0
 40
6.0
 40
6.0
 40
7.0
 40
7.0
 40
7.0
 40
8.0
 40
8.0
 40
8.0
 40
9.0
 40
9.0
 40
9.0
 40
10.0
 40
10.0
 40
10.0
 40
11.0
 40
11.0
 40
11.0
 40
12.0
 40
12.0
 40
12.0
 40
13.0
 40
13.0
 40
13.0
 40
13.0
 10
-12.197705078124999
 20
1.4689887152777776
 10
-12.197705078124999
 20
1.4689887152777776
 10
-12.197705078124999
 20
-1.1162109375
 10
-12.197705078124999
 20
-1.1162109375
 10
-12.197705078124999
 20
-1.1162109375
 10
-12.462288411458331
 20
-1.1162109375
 10
-12.462288411458331
 20
-1.1162109375
 10
-12.462288411458331
 20
-1.1162109375
 10
-12.449024793836804
 20
-0.880910915798611
 10
-12.449024793836804
 20
-0.880910915798611
 10
-12.449024793836804
 20
-0.880910915798611
 10
-12.456604003906248
 20
-0.8791883680555555
 10
-12.456604003906248
 20
-0.8791883680555555
 10
-12.539803059895831
 20
-1.0555772569444444
 10
-12.733417426215278
 20
-1.1437717013888888
 10
-13.037274848090277
 20
-1.1437717013888888
 10
-13.314605034722222
 20
-1.1437717013888888
 10
-13.504085286458333
 20
-1.0762478298611111
 10
-13.605543348524304
 20
-0.9412000868055555
 10
-13.707001410590276
 20
-0.8061523437499999
 10
-13.75764431423611
 20
-0.5543158637152778
 10
-13.75764431423611
 20
-0.1856906467013889
 10
-13.75764431423611
 20
0.1539957682291667
 10
-13.706656901041665
 20
0.3896402994791666
 10
-13.604509819878471
 20
0.5212429470486111
 10
-13.502362738715277
 20
0.6535346137152778
 10
-13.319600423177082
 20
0.7193359374999999
 10
-13.056050618489582
 20
0.7193359374999999
 10
-12.727043999565971
 20
0.7193359374999999
 10
-12.531018066406249
 20
0.6356201171874999
 10
-12.467972819010415
 20
0.4678439670138889
 10
-12.467972819010415
 20
0.4678439670138889
 10
-12.462288411458331
 20
0.4716335720486111
 10
-12.462288411458331
 20
0.4716335720486111
 10
-12.462288411458331
 20
0.4716335720486111
 10
-12.462288411458331
 20
1.4689887152777776
 10
-12.462288411458331
 20
1.4689887152777776
 10
-12.462288411458331
 20
1.4689887152777776
 10
-12.197705078124999
 20
1.4689887152777776
 10
-12.197705078124999
 20
1.4689887152777776
 97
        0
 75
     0
 76
     1
 98
        1
 10
0.0
 20
0.0
  0
HATCH
  5
38
100
AcDbEntity
  8
LAYER_1
 62
     7
100
AcDbHatch
 10
0.0
 20
0.0
 30
0.0
210
0.0
220
0.0
230
1.0
  2
SOLID
 70
     1
 71
     0
 91
        2
 92
       16
 93
        1
 72
     4
 94
        3
 73
     0
 74
     0
 95
       26
 96
       22
 40
0.0
 40
0.0
 40
0.0
 40
0.0
 40
1.0
 40
1.0
 40
1.0
 40
2.0
 40
2.0
 40
2.0
 40
3.0
 40
3.0
 40
3.0
 40
4.0
 40
4.0
 40
4.0
 40
5.0
 40
5.0
 40
5.0
 40
6.0
 40
6.0
 40
6.0
 40
7.0
 40
7.0
 40
7.0
 40
7.0
 10
-10.423653157552083
 20
0.1791449652777778
 10
-10.423653157552083
 20
0.1791449652777778
 10
-9.5823608398437496
 20
0.1791449652777778
 10
-9.5823608398437496
 20
0.1791449652777778
 10
-9.3603244357638875
 20
0.1791449652777778
 10
-9.2089124891493039
 20
0.2125623914930555
 10
-9.1281249999999989
 20
0.2800862630208333
 10
-9.0475097656249996
 20
0.3476101345486111
 10
-9.0070298936631943
 20
0.4743896484375
 10
-9.0070298936631943
 20
0.6604248046875
 10
-9.0070298936631943
 20
0.8933132595486111
 10
-9.03700222439236
 20
1.0448974609374999
 10
-9.0969468858506932
 20
1.1151774088541666
 10
-9.1568915473090264
 20
1.1858018663194443
 10
-9.2852213541666657
 20
1.2209418402777776
 10
-9.482108561197915
 20
1.2209418402777776
 10
-9.482108561197915
 20
1.2209418402777776
 10
-10.423653157552083
 20
1.2209418402777776
 10
-10.423653157552083
 20
1.2209418402777776
 10
-10.423653157552083
 20
1.2209418402777776
 10
-10.423653157552083
 20
0.1791449652777778
 10
-10.423653157552083
 20
0.1791449652777778
 97
        0
 92
        1
 93
        1
 72
     4
 94
        3
 73
     0
 74
     0
 95
       53
 96
       49
 40
0.0
 40
0.0
 40
0.0
 40
0.0
 40
1.0
 40
1.0
 40
1.0
 40
2.0
 40
2.0
 40
2.0
 40
3.0
 40
3.0
 40
3.0
 40
4.0
 40
4.0
 40
4.0
 40
5.0
 40
5.0
 40
5.0
 40
6.0
 40
6.0
 40
6.0
 40
7.0
 40
7.0
 40
7.0
 40
8.0
 40
8.0
 40
8.0
 40
9.0
 40
9.0
 40
9.0
 40
10.0
 40
10.0
 40
10.0
 40
11.0
 40
11.0
 40
11.0
 40
12.0
 40
12.0
 40
12.0
 40
13.0
 40
13.0
 40
13.0
 40
14.0
 40
14.0
 40
14.0
 40
15.0
 40
15.0
 40
15.0
 40
16.0
 40
16.0
 40
16.0
 40
16.0
 10
-10.715797254774305
 20
-1.1162109375
 10
-10.715797254774305
 20
-1.1162109375
 10
-10.715797254774305
 20
1.4689887152777776
 10
-10.715797254774305
 20
1.4689887152777776
 10
-10.715797254774305
 20
1.4689887152777776
 10
-9.4858981662326372
 20
1.4689887152777776
 10
-9.4858981662326372
 20
1.4689887152777776
 10
-9.2071899414062486
 20
1.4689887152777776
 10
-9.0109917534722221
 20
1.4142116970486109
 10
-8.8969590928819429
 20
1.3043131510416666
 10
-8.7829264322916654
 20
1.1944146050347222
 10
-8.7259101019965275
 20
1.0039008246527776
 10
-8.7259101019965275
 20
0.7327718098958332
 10
-8.7259101019965275
 20
0.4943712022569444
 10
-8.7570882161458332
 20
0.3279730902777778
 10
-8.8194444444444429
 20
0.2339219835069444
 10
-8.8816284179687486
 20
0.1398708767361111
 10
-9.0004842122395825
 20
0.0788926866319444
 10
-9.1758395724826389
 20
0.0513319227430556
 10
-9.1758395724826389
 20
0.0513319227430556
 10
-9.1758395724826389
 20
0.0454752604166667
 10
-9.1758395724826389
 20
0.0454752604166667
 10
-8.9016099717881936
 20
0.0251491970486111
 10
-8.7644951714409718
 20
-0.1415934244791667
 10
-8.7644951714409718
 20
-0.4550971137152777
 10
-8.7644951714409718
 20
-0.4550971137152777
 10
-8.7644951714409718
 20
-1.1162109375
 10
-8.7644951714409718
 20
-1.1162109375
 10
-8.7644951714409718
 20
-1.1162109375
 10
-9.0566392686631936
 20
-1.1162109375
 10
-9.0566392686631936
 20
-1.1162109375
 10
-9.0566392686631936
 20
-1.1162109375
 10
-9.0566392686631936
 20
-0.5215874565972222
 10
-9.0566392686631936
 20
-0.5215874565972222
 10
-9.0566392686631936
 20
-0.2197970920138889
 10
-9.1872083875868054
 20
-0.0689019097222222
 10
-9.4480021158854157
 20
-0.0689019097222222
 10
-9.4480021158854157
 20
-0.0689019097222222
 10
-9.5444647894965264
 20
-0.0689019097222222
 10
-9.5444647894965264
 20
-0.0689019097222222
 10
-9.5444647894965264
 20
-0.0689019097222222
 10
-10.423653157552083
 20
-0.0689019097222222
 10
-10.423653157552083
 20
-0.0689019097222222
 10
-10.423653157552083
 20
-0.0689019097222222
 10
-10.423653157552083
 20
-1.1162109375
 10
-10.423653157552083
 20
-1.1162109375
 10
-10.423653157552083
 20
-1.1162109375
 10
-10.715797254774305
 20
-1.1162109375
 10
-10.715797254774305
 20
-1.1162109375
 97
        0
 75
     0
 76
     1
 98
        1
 10
0.0
 20
0.0
  0
HATCH
  5
37
100
AcDbEntity
  8
LAYER_1
 62
     7
100
AcDbHatch
 10
0.0
 20
0.0
 30
0.0
210
0.0
220
0.0
230
1.0
  2
SOLID
 70
     1
 71
     0
 91
        2
 92
       16
 93
        1
 72
     4
 94
        3
 73
     0
 74
     0
 95
       23
 96
       19
 40
0.0
 40
0.0
 40
0.0
 40
0.0
 40
1.0
 40
1.0
 40
1.0
 40
2.0
 40
2.0
 40
2.0
 40
3.0
 40
3.0
 40
3.0
 40
4.0
 40
4.0
 40
4.0
 40
5.0
 40
5.0
 40
5.0
 40
6.0
 40
6.0
 40
6.0
 40
6.0
 10
-7.0374688042534714
 20
-0.0523654513888889
 10
-7.0374688042534714
 20
-0.0523654513888889
 10
-7.0393636067708325
 20
0.0323838975694444
 10
-7.0393636067708325
 20
0.0323838975694444
 10
-7.0393636067708325
 20
0.2266872829861111
 10
-7.0715752495659716
 20
0.3531222873263888
 10
-7.1359985351562489
 20
0.4113444010416666
 10
-7.2004218207465271
 20
0.4695665147569444
 10
-7.33943142361111
 20
0.4988498263888889
 10
-7.5528550889756936
 20
0.4988498263888889
 10
-7.7676567925347211
 20
0.4988498263888889
 10
-7.9070109049479163
 20
0.4647433810763889
 10
-7.9707451714409716
 20
0.3961859809027777
 10
-8.0344794379340279
 20
0.3279730902777778
 10
-8.0663465711805546
 20
0.1784559461805556
 10
-8.0663465711805546
 20
-0.0523654513888889
 10
-8.0663465711805546
 20
-0.0523654513888889
 10
-7.0374688042534714
 20
-0.0523654513888889
 10
-7.0374688042534714
 20
-0.0523654513888889
 97
        0
 92
        1
 93
        1
 72
     4
 94
        3
 73
     0
 74
     0
 95
       56
 96
       52
 40
0.0
 40
0.0
 40
0.0
 40
0.0
 40
1.0
 40
1.0
 40
1.0
 40
2.0
 40
2.0
 40
2.0
 40
3.0
 40
3.0
 40
3.0
 40
4.0
 40
4.0
 40
4.0
 40
5.0
 40
5.0
 40
5.0
 40
6.0
 40
6.0
 40
6.0
 40
7.0
 40
7.0
 40
7.0
 40
8.0
 40
8.0
 40
8.0
 40
9.0
 40
9.0
 40
9.0
 40
10.0
 40
10.0
 40
10.0
 40
11.0
 40
11.0
 40
11.0
 40
12.0
 40
12.0
 40
12.0
 40
13.0
 40
13.0
 40
13.0
 40
14.0
 40
14.0
 40
14.0
 40
15.0
 40
15.0
 40
15.0
 40
16.0
 40
16.0
 40
16.0
 40
17.0
 40
17.0
 40
17.0
 40
17.0
 10
-7.0374688042534714
 20
-0.5705078124999999
 10
-7.0374688042534714
 20
-0.5705078124999999
 10
-6.7665120442708329
 20
-0.5705078124999999
 10
-6.7665120442708329
 20
-0.5705078124999999
 10
-6.7665120442708329
 20
-0.5705078124999999
 10
-6.7666842990451386
 20
-0.6366536458333333
 10
-6.7666842990451386
 20
-0.6366536458333333
 10
-6.7666842990451386
 20
-0.824755859375
 10
-6.8237006293402773
 20
-0.9560139973958333
 10
-6.9377332899305548
 20
-1.0311170789930555
 10
-7.0517659505208323
 20
-1.1062201605902777
 10
-7.2519259982638884
 20
-1.1437717013888888
 10
-7.5378689236111107
 20
-1.1437717013888888
 10
-7.8704928927951379
 20
-1.1437717013888888
 10
-8.0889119466145818
 20
-1.0827935112847222
 10
-8.1927815755208329
 20
-0.9611816406249999
 10
-8.2968234592013879
 20
-0.8392252604166666
 10
-8.3486721462673597
 20
-0.5832546657986111
 10
-8.3486721462673597
 20
-0.1932698567708333
 10
-8.3486721462673597
 20
0.1677761501736111
 10
-8.2963066948784707
 20
0.4099663628472222
 10
-8.1915757921006929
 20
0.5336452907986111
 10
-8.0868448893229168
 20
0.6573242187499999
 10
-7.8818617078993052
 20
0.7193359374999999
 10
-7.5766262478298607
 20
0.7193359374999999
 10
-7.2434855143229164
 20
0.7193359374999999
 10
-7.0252387152777773
 20
0.6659369574652777
 10
-6.9217135959201386
 20
0.5591389973958333
 10
-6.8183607313368046
 20
0.4523410373263889
 10
-6.7665120442708329
 20
0.2277208116319444
 10
-6.7665120442708329
 20
-0.1150661892361111
 10
-6.7665120442708329
 20
-0.1150661892361111
 10
-6.7665120442708329
 20
-0.2563151041666666
 10
-6.7665120442708329
 20
-0.2563151041666666
 10
-6.7665120442708329
 20
-0.2563151041666666
 10
-8.0701361762152768
 20
-0.2563151041666666
 10
-8.0701361762152768
 20
-0.2563151041666666
 10
-8.0701361762152768
 20
-0.5432915581597222
 10
-8.0396470811631939
 20
-0.7265706380208332
 10
-7.9783243815104159
 20
-0.8051188151041666
 10
-7.9170016818576379
 20
-0.884011501736111
 10
-7.7740302191840271
 20
-0.9232855902777777
 10
-7.5490654839409714
 20
-0.9232855902777777
 10
-7.3356418185763879
 20
-0.9232855902777777
 10
-7.1969767252604164
 20
-0.9046820746527777
 10
-7.1332424587673602
 20
-0.8678195529513888
 10
-7.0695081922743048
 20
-0.8306125217013888
 10
-7.0374688042534714
 20
-0.7503417968749999
 10
-7.0374688042534714
 20
-0.6273518880208333
 10
-7.0374688042534714
 20
-0.6273518880208333
 10
-7.0374688042534714
 20
-0.5705078124999999
 10
-7.0374688042534714
 20
-0.5705078124999999
 97
        0
 75
     0
 76
     1
 98
        1
 10
0.0
 20
0.0
  0
HATCH
  5
36
100
AcDbEntity
  8
LAYER_1
 62
     7
100
AcDbHatch
 10
0.0
 20
0.0
 30
0.0
210
0.0
220
0.0
230
1.0
  2
SOLID
 70
     1
 71
     0
 91
        1
 92
        1
 93
        1
 72
     4
 94
        3
 73
     0
 74
     0
 95
       77
 96
       73
 40
0.0
 40
0.0
 40
0.0
 40
0.0
 40
1.0
 40
1.0
 40
1.0
 40
2.0
 40
2.0
 40
2.0
 40
3.0
 40
3.0
 40
3.0
 40
4.0
 40
4.0
 40
4.0
 40
5.0
 40
5.0
 40
5.0
 40
6.0
 40
6.0
 40
6.0
 40
7.0
 40
7.0
 40
7.0
 40
8.0
 40
8.0
 40
8.0
 40
9.0
 40
9.0
 40
9.0
 40
10.0
 40
10.0
 40
10.0
 40
11.0
 40
11.0
 40
11.0
 40
12.0
 40
12.0
 40
12.0
 40
13.0
 40
13.0
 40
13.0
 40
14.0
 40
14.0
 40
14.0
 40
15.0
 40
15.0
 40
15.0
 40
16.0
 40
16.0
 40
16.0
 40
17.0
 40
17.0
 40
17.0
 40
18.0
 40
18.0
 40
18.0
 40
19.0
 40
19.0
 40
19.0
 40
20.0
 40
20.0
 40
20.0
 40
21.0
 40
21.0
 40
21.0
 40
22.0
 40
22.0
 40
22.0
 40
23.0
 40
23.0
 40
23.0
 40
24.0
 40
24.0
 40
24.0
 40
24.0
 10
-6.3338080512152768
 20
0.6972873263888888
 10
-6.3338080512152768
 20
0.6972873263888888
 10
-6.0692247178819443
 20
0.6972873263888888
 10
-6.0692247178819443
 20
0.6972873263888888
 10
-6.0692247178819443
 20
0.6972873263888888
 10
-6.0749091254340275
 20
0.4240912543402777
 10
-6.0749091254340275
 20
0.4240912543402777
 10
-6.0749091254340275
 20
0.4240912543402777
 10
-6.0692247178819443
 20
0.4185791015624999
 10
-6.0692247178819443
 20
0.4185791015624999
 10
-5.966733127170138
 20
0.6190836588541666
 10
-5.7693291558159716
 20
0.7193359374999999
 10
-5.4770128038194441
 20
0.7193359374999999
 10
-5.1695380316840271
 20
0.7193359374999999
 10
-4.9828138563368052
 20
0.6190836588541666
 10
-4.917012532552083
 20
0.4185791015624999
 10
-4.917012532552083
 20
0.4185791015624999
 10
-4.9094333224826388
 20
0.4185791015624999
 10
-4.9094333224826388
 20
0.4185791015624999
 10
-4.7955729166666661
 20
0.6190836588541666
 10
-4.5874891493055552
 20
0.7193359374999999
 10
-4.2851820203993052
 20
0.7193359374999999
 10
-3.8576456705729165
 20
0.7193359374999999
 10
-3.643877495659722
 20
0.5026394314236111
 10
-3.643877495659722
 20
0.0692464192708333
 10
-3.643877495659722
 20
0.0692464192708333
 10
-3.643877495659722
 20
-1.1162109375
 10
-3.643877495659722
 20
-1.1162109375
 10
-3.643877495659722
 20
-1.1162109375
 10
-3.9084608289930554
 20
-1.1162109375
 10
-3.9084608289930554
 20
-1.1162109375
 10
-3.9084608289930554
 20
-1.1162109375
 10
-3.9084608289930554
 20
0.0940511067708333
 10
-3.9084608289930554
 20
0.0940511067708333
 10
-3.9084608289930554
 20
0.2514919704861111
 10
-3.9368828667534719
 20
0.3582899305555555
 10
-3.9938991970486106
 20
0.4144449869791667
 10
-4.0509155273437498
 20
0.4706000434027777
 10
-4.1585747612847221
 20
0.4988498263888889
 10
-4.3168768988715271
 20
0.4988498263888889
 10
-4.5271999782986105
 20
0.4988498263888889
 10
-4.669654676649305
 20
0.4595757378472222
 10
-4.7444132486979163
 20
0.3813720703125
 10
-4.8191718207465275
 20
0.3028238932291666
 10
-4.8565511067708327
 20
0.1533067491319444
 10
-4.8565511067708327
 20
-0.0671793619791667
 10
-4.8565511067708327
 20
-0.0671793619791667
 10
-4.8565511067708327
 20
-1.1162109375
 10
-4.8565511067708327
 20
-1.1162109375
 10
-4.8565511067708327
 20
-1.1162109375
 10
-5.1211344401041661
 20
-1.1162109375
 10
-5.1211344401041661
 20
-1.1162109375
 10
-5.1211344401041661
 20
-1.1162109375
 10
-5.1211344401041661
 20
0.0692464192708333
 10
-5.1211344401041661
 20
0.0692464192708333
 10
-5.1211344401041661
 20
0.0692464192708333
 10
-5.1249240451388882
 20
0.1529622395833333
 10
-5.1249240451388882
 20
0.1529622395833333
 10
-5.1249240451388882
 20
0.3834391276041667
 10
-5.2585937499999993
 20
0.4988498263888889
 10
-5.5257609049479166
 20
0.4988498263888889
 10
-5.8880126953124998
 20
0.4988498263888889
 10
-6.0692247178819443
 20
0.303857421875
 10
-6.0692247178819443
 20
-0.0861273871527778
 10
-6.0692247178819443
 20
-0.0861273871527778
 10
-6.0692247178819443
 20
-1.1162109375
 10
-6.0692247178819443
 20
-1.1162109375
 10
-6.0692247178819443
 20
-1.1162109375
 10
-6.3338080512152768
 20
-1.1162109375
 10
-6.3338080512152768
 20
-1.1162109375
 10
-6.3338080512152768
 20
-1.1162109375
 10
-6.3338080512152768
 20
0.6972873263888888
 10
-6.3338080512152768
 20
0.6972873263888888
 97
        0
 75
     0
 76
     1
 98
        1
 10
0.0
 20
0.0
  0
HATCH
  5
35
100
AcDbEntity
  8
LAYER_1
 62
     7
100
AcDbHatch
 10
0.0
 20
0.0
 30
0.0
210
0.0
220
0.0
230
1.0
  2
SOLID
 70
     1
 71
     0
 91
        2
 92
       16
 93
        1
 72
     4
 94
        3
 73
     0
 74
     0
 95
       29
 96
       25
 40
0.0
 40
0.0
 40
0.0
 40
0.0
 40
1.0
 40
1.0
 40
1.0
 40
2.0
 40
2.0
 40
2.0
 40
3.0
 40
3.0
 40
3.0
 40
4.0
 40
4.0
 40
4.0
 40
5.0
 40
5.0
 40
5.0
 40
6.0
 40
6.0
 40
6.0
 40
7.0
 40
7.0
 40
7.0
 40
8.0
 40
8.0
 40
8.0
 40
8.0
 10
-2.3654025607638887
 20
0.4988498263888889
 10
-2.5986355251736111
 20
0.4988498263888889
 10
-2.7431572808159719
 20
0.4606092664930555
 10
-2.798967827690972
 20
0.38447265625
 10
-2.8547783745659721
 20
0.3079915364583333
 10
-2.8826836480034719
 20
0.1092095269097222
 10
-2.8826836480034719
 20
-0.2122178819444444
 10
-2.8826836480034719
 20
-0.5336452907986111
 10
-2.8547783745659721
 20
-0.7327718098958332
 10
-2.798967827690972
 20
-0.8089084201388889
 10
-2.7431572808159719
 20
-0.8850450303819444
 10
-2.5986355251736111
 20
-0.9232855902777777
 10
-2.3654025607638887
 20
-0.9232855902777777
 10
-2.1311360677083333
 20
-0.9232855902777777
 10
-1.9857530381944442
 20
-0.8850450303819444
 10
-1.9299424913194443
 20
-0.8089084201388889
 10
-1.8741319444444442
 20
-0.7327718098958332
 10
-1.8462266710069444
 20
-0.5336452907986111
 10
-1.8462266710069444
 20
-0.2122178819444444
 10
-1.8462266710069444
 20
0.1092095269097222
 10
-1.8741319444444442
 20
0.3079915364583333
 10
-1.9299424913194443
 20
0.38447265625
 10
-1.9857530381944442
 20
0.4606092664930555
 10
-2.1311360677083333
 20
0.4988498263888889
 10
-2.3654025607638887
 20
0.4988498263888889
 97
        0
 92
        1
 93
        1
 72
     4
 94
        3
 73
     0
 74
     0
 95
       29
 96
       25
 40
0.0
 40
0.0
 40
0.0
 40
0.0
 40
1.0
 40
1.0
 40
1.0
 40
2.0
 40
2.0
 40
2.0
 40
3.0
 40
3.0
 40
3.0
 40
4.0
 40
4.0
 40
4.0
 40
5.0
 40
5.0
 40
5.0
 40
6.0
 40
6.0
 40
6.0
 40
7.0
 40
7.0
 40
7.0
 40
8.0
 40
8.0
 40
8.0
 40
8.0
 10
-2.3654025607638887
 20
0.7193359374999999
 10
-2.031228298611111
 20
0.7193359374999999
 10
-1.814187282986111
 20
0.6611138237847222
 10
-1.7146240234374999
 20
0.5450141059027778
 10
-1.6150607638888888
 20
0.4289143880208333
 10
-1.5651068793402776
 20
0.1767333984375
 10
-1.5651068793402776
 20
-0.2122178819444444
 10
-1.5651068793402776
 20
-0.6011691623263888
 10
-1.6150607638888888
 20
-0.8533501519097222
 10
-1.7146240234374999
 20
-0.9697943793402777
 10
-1.814187282986111
 20
-1.085549587673611
 10
-2.031228298611111
 20
-1.1437717013888888
 10
-2.3654025607638887
 20
-1.1437717013888888
 10
-2.6983710394965277
 20
-1.1437717013888888
 10
-2.9147230360243053
 20
-1.085549587673611
 10
-3.0142862955729166
 20
-0.9697943793402777
 10
-3.1140218098958332
 20
-0.8533501519097222
 10
-3.1638034396701387
 20
-0.6011691623263888
 10
-3.1638034396701387
 20
-0.2122178819444444
 10
-3.1638034396701387
 20
0.1767333984375
 10
-3.1140218098958332
 20
0.4289143880208333
 10
-3.0142862955729166
 20
0.5450141059027778
 10
-2.9147230360243053
 20
0.6611138237847222
 10
-2.6983710394965277
 20
0.7193359374999999
 10
-2.3654025607638887
 20
0.7193359374999999
 97
        0
 75
     0
 76
     1
 98
        1
 10
0.0
 20
0.0
  0
HATCH
  5
34
100
AcDbEntity
  8
LAYER_1
 62
     7
100
AcDbHatch
 10
0.0
 20
0.0
 30
0.0
210
0.0
220
0.0
230
1.0
  2
SOLID
 70
     1
 71
     0
 91
        1
 92
        1
 93
        1
 72
     4
 94
        3
 73
     0
 74
     0
 95
       65
 96
       61
 40
0.0
 40
0.0
 40
0.0
 40
0.0
 40
1.0
 40
1.0
 40
1.0
 40
2.0
 40
2.0
 40
2.0
 40
3.0
 40
3.0
 40
3.0
 40
4.0
 40
4.0
 40
4.0
 40
5.0
 40
5.0
 40
5.0
 40
6.0
 40
6.0
 40
6.0
 40
7.0
 40
7.0
 40
7.0
 40
8.0
 40
8.0
 40
8.0
 40
9.0
 40
9.0
 40
9.0
 40
10.0
 40
10.0
 40
10.0
 40
11.0
 40
11.0
 40
11.0
 40
12.0
 40
12.0
 40
12.0
 40
13.0
 40
13.0
 40
13.0
 40
14.0
 40
14.0
 40
14.0
 40
15.0
 40
15.0
 40
15.0
 40
16.0
 40
16.0
 40
16.0
 40
17.0
 40
17.0
 40
17.0
 40
18.0
 40
18.0
 40
18.0
 40
19.0
 40
19.0
 40
19.0
 40
20.0
 40
20.0
 40
20.0
 40
20.0
 10
-0.1708767361111111
 20
0.6972873263888888
 10
-0.1708767361111111
 20
0.6972873263888888
 10
-0.1708767361111111
 20
0.4768012152777778
 10
-0.1708767361111111
 20
0.4768012152777778
 10
-0.1708767361111111
 20
0.4768012152777778
 10
-0.8709201388888889
 20
0.4768012152777778
 10
-0.8709201388888889
 20
0.4768012152777778
 10
-0.8709201388888889
 20
0.4768012152777778
 10
-0.8709201388888889
 20
-0.6311414930555555
 10
-0.8709201388888889
 20
-0.6311414930555555
 10
-0.8709201388888889
 20
-0.8257893880208332
 10
-0.7847927517361111
 20
-0.9232855902777777
 10
-0.6121934678819444
 20
-0.9232855902777777
 10
-0.4409722222222222
 20
-0.9232855902777777
 10
-0.3555338541666666
 20
-0.8361246744791666
 10
-0.3555338541666666
 20
-0.6614583333333333
 10
-0.3555338541666666
 20
-0.6614583333333333
 10
-0.3527777777777778
 20
-0.5722303602430555
 10
-0.3527777777777778
 20
-0.5722303602430555
 10
-0.3527777777777778
 20
-0.5722303602430555
 10
-0.3496771918402777
 20
-0.4712890625
 10
-0.3496771918402777
 20
-0.4712890625
 10
-0.3496771918402777
 20
-0.4712890625
 10
-0.1026638454861111
 20
-0.4712890625
 10
-0.1026638454861111
 20
-0.4712890625
 10
-0.1026638454861111
 20
-0.4712890625
 10
-0.09921875
 20
-0.6066813151041666
 10
-0.09921875
 20
-0.6066813151041666
 10
-0.09921875
 20
-0.9646267361111111
 10
-0.2694064670138889
 20
-1.1437717013888888
 10
-0.6090928819444444
 20
-1.1437717013888888
 10
-0.9601481119791666
 20
-1.1437717013888888
 10
-1.1355034722222221
 20
-0.9945990668402777
 10
-1.1355034722222221
 20
-0.6955647786458332
 10
-1.1355034722222221
 20
-0.6955647786458332
 10
-1.1355034722222221
 20
-0.6311414930555555
 10
-1.1355034722222221
 20
-0.6311414930555555
 10
-1.1355034722222221
 20
-0.6311414930555555
 10
-1.1355034722222221
 20
0.4768012152777778
 10
-1.1355034722222221
 20
0.4768012152777778
 10
-1.1355034722222221
 20
0.4768012152777778
 10
-1.3835503472222221
 20
0.4768012152777778
 10
-1.3835503472222221
 20
0.4768012152777778
 10
-1.3835503472222221
 20
0.4768012152777778
 10
-1.3835503472222221
 20
0.6972873263888888
 10
-1.3835503472222221
 20
0.6972873263888888
 10
-1.3835503472222221
 20
0.6972873263888888
 10
-1.1355034722222221
 20
0.6972873263888888
 10
-1.1355034722222221
 20
0.6972873263888888
 10
-1.1355034722222221
 20
0.6972873263888888
 10
-1.1355034722222221
 20
1.1327473958333332
 10
-1.1355034722222221
 20
1.1327473958333332
 10
-1.1355034722222221
 20
1.1327473958333332
 10
-0.8709201388888889
 20
1.1327473958333332
 10
-0.8709201388888889
 20
1.1327473958333332
 10
-0.8709201388888889
 20
1.1327473958333332
 10
-0.8709201388888889
 20
0.6972873263888888
 10
-0.8709201388888889
 20
0.6972873263888888
 10
-0.8709201388888889
 20
0.6972873263888888
 10
-0.1708767361111111
 20
0.6972873263888888
 10
-0.1708767361111111
 20
0.6972873263888888
 97
        0
 75
     0
 76
     1
 98
        1
 10
0.0
 20
0.0
  0
HATCH
  5
33
100
AcDbEntity
  8
LAYER_1
 62
     7
100
AcDbHatch
 10
0.0
 20
0.0
 30
0.0
210
0.0
220
0.0
230
1.0
  2
SOLID
 70
     1
 71
     0
 91
        2
 92
       16
 93
        1
 72
     4
 94
        3
 73
     0
 74
     0
 95
       23
 96
       19
 40
0.0
 40
0.0
 40
0.0
 40
0.0
 40
1.0
 40
1.0
 40
1.0
 40
2.0
 40
2.0
 40
2.0
 40
3.0
 40
3.0
 40
3.0
 40
4.0
 40
4.0
 40
4.0
 40
5.0
 40
5.0
 40
5.0
 40
6.0
 40
6.0
 40
6.0
 40
6.0
 10
1.4052544487847221
 20
-0.0523654513888889
 10
1.4052544487847221
 20
-0.0523654513888889
 10
1.4035319010416665
 20
0.0323838975694444
 10
1.4035319010416665
 20
0.0323838975694444
 10
1.4035319010416665
 20
0.2266872829861111
 10
1.3711480034722221
 20
0.3531222873263888
 10
1.3067247178819443
 20
0.4113444010416666
 10
1.2423014322916666
 20
0.4695665147569444
 10
1.1034640842013888
 20
0.4988498263888889
 10
0.8898681640624999
 20
0.4988498263888889
 10
0.6752387152777777
 20
0.4988498263888889
 10
0.5357123480902777
 20
0.4647433810763889
 10
0.4719780815972222
 20
0.3961859809027777
 10
0.4082438151041666
 20
0.3279730902777778
 10
0.3765489366319444
 20
0.1784559461805556
 10
0.3765489366319444
 20
-0.0523654513888889
 10
0.3765489366319444
 20
-0.0523654513888889
 10
1.4052544487847221
 20
-0.0523654513888889
 10
1.4052544487847221
 20
-0.0523654513888889
 97
        0
 92
        1
 93
        1
 72
     4
 94
        3
 73
     0
 74
     0
 95
       56
 96
       52
 40
0.0
 40
0.0
 40
0.0
 40
0.0
 40
1.0
 40
1.0
 40
1.0
 40
2.0
 40
2.0
 40
2.0
 40
3.0
 40
3.0
 40
3.0
 40
4.0
 40
4.0
 40
4.0
 40
5.0
 40
5.0
 40
5.0
 40
6.0
 40
6.0
 40
6.0
 40
7.0
 40
7.0
 40
7.0
 40
8.0
 40
8.0
 40
8.0
 40
9.0
 40
9.0
 40
9.0
 40
10.0
 40
10.0
 40
10.0
 40
11.0
 40
11.0
 40
11.0
 40
12.0
 40
12.0
 40
12.0
 40
13.0
 40
13.0
 40
13.0
 40
14.0
 40
14.0
 40
14.0
 40
15.0
 40
15.0
 40
15.0
 40
16.0
 40
16.0
 40
16.0
 40
17.0
 40
17.0
 40
17.0
 40
17.0
 10
1.4052544487847221
 20
-0.5705078124999999
 10
1.4052544487847221
 20
-0.5705078124999999
 10
1.6763834635416666
 20
-0.5705078124999999
 10
1.6763834635416666
 20
-0.5705078124999999
 10
1.6763834635416666
 20
-0.5705078124999999
 10
1.6760389539930554
 20
-0.6366536458333333
 10
1.6760389539930554
 20
-0.6366536458333333
 10
1.6760389539930554
 20
-0.824755859375
 10
1.6191948784722221
 20
-0.9560139973958333
 10
1.5051622178819444
 20
-1.0311170789930555
 10
1.3911295572916664
 20
-1.1062201605902777
 10
1.190969509548611
 20
-1.1437717013888888
 10
0.9050265842013888
 20
-1.1437717013888888
 10
0.5722303602430555
 20
-1.1437717013888888
 10
0.3538113064236111
 20
-1.0827935112847222
 10
0.2501139322916666
 20
-0.9611816406249999
 10
0.1460720486111111
 20
-0.8392252604166666
 10
0.0940511067708333
 20
-0.5832546657986111
 10
0.0940511067708333
 20
-0.1932698567708333
 10
0.0940511067708333
 20
0.1677761501736111
 10
0.1464165581597222
 20
0.4099663628472222
 10
0.2511474609375
 20
0.5336452907986111
 10
0.3558783637152778
 20
0.6573242187499999
 10
0.5608615451388889
 20
0.7193359374999999
 10
0.8660970052083332
 20
0.7193359374999999
 10
1.1992377387152777
 20
0.7193359374999999
 10
1.4176567925347221
 20
0.6659369574652777
 10
1.5210096571180554
 20
0.5591389973958333
 10
1.6243625217013888
 20
0.4523410373263889
 10
1.6763834635416666
 20
0.2277208116319444
 10
1.6763834635416666
 20
-0.1150661892361111
 10
1.6763834635416666
 20
-0.1150661892361111
 10
1.6763834635416666
 20
-0.2563151041666666
 10
1.6763834635416666
 20
-0.2563151041666666
 10
1.6763834635416666
 20
-0.2563151041666666
 10
0.3727593315972222
 20
-0.2563151041666666
 10
0.3727593315972222
 20
-0.2563151041666666
 10
0.3727593315972222
 20
-0.5432915581597222
 10
0.4030761718749999
 20
-0.7265706380208332
 10
0.4643988715277778
 20
-0.8051188151041666
 10
0.5257215711805555
 20
-0.884011501736111
 10
0.6686930338541666
 20
-0.9232855902777777
 10
0.8936577690972222
 20
-0.9232855902777777
 10
1.1072536892361111
 20
-0.9232855902777777
 10
1.2457465277777777
 20
-0.9046820746527777
 10
1.3094807942708333
 20
-0.8678195529513888
 10
1.3732150607638887
 20
-0.8306125217013888
 10
1.4052544487847221
 20
-0.7503417968749999
 10
1.4052544487847221
 20
-0.6273518880208333
 10
1.4052544487847221
 20
-0.6273518880208333
 10
1.4052544487847221
 20
-0.5705078124999999
 10
1.4052544487847221
 20
-0.5705078124999999
 97
        0
 75
     0
 76
     1
 98
        1
 10
0.0
 20
0.0
  0
HATCH
  5
32
100
AcDbEntity
  8
LAYER_1
 62
     7
100
AcDbHatch
 10
0.0
 20
0.0
 30
0.0
210
0.0
220
0.0
230
1.0
  2
SOLID
 70
     1
 71
     0
 91
        1
 92
        1
 93
        1
 72
     4
 94
        3
 73
     0
 74
     0
 95
       92
 96
       88
 40
0.0
 40
0.0
 40
0.0
 40
0.0
 40
1.0
 40
1.0
 40
1.0
 40
2.0
 40
2.0
 40
2.0
 40
3.0
 40
3.0
 40
3.0
 40
4.0
 40
4.0
 40
4.0
 40
5.0
 40
5.0
 40
5.0
 40
6.0
 40
6.0
 40
6.0
 40
7.0
 40
7.0
 40
7.0
 40
8.0
 40
8.0
 40
8.0
 40
9.0
 40
9.0
 40
9.0
 40
10.0
 40
10.0
 40
10.0
 40
11.0
 40
11.0
 40
11.0
 40
12.0
 40
12.0
 40
12.0
 40
13.0
 40
13.0
 40
13.0
 40
14.0
 40
14.0
 40
14.0
 40
15.0
 40
15.0
 40
15.0
 40
16.0
 40
16.0
 40
16.0
 40
17.0
 40
17.0
 40
17.0
 40
18.0
 40
18.0
 40
18.0
 40
19.0
 40
19.0
 40
19.0
 40
20.0
 40
20.0
 40
20.0
 40
21.0
 40
21.0
 40
21.0
 40
22.0
 40
22.0
 40
22.0
 40
23.0
 40
23.0
 40
23.0
 40
24.0
 40
24.0
 40
24.0
 40
25.0
 40
25.0
 40
25.0
 40
26.0
 40
26.0
 40
26.0
 40
27.0
 40
27.0
 40
27.0
 40
28.0
 40
28.0
 40
28.0
 40
29.0
 40
29.0
 40
29.0
 40
29.0
 10
4.8830783420138886
 20
0.7689453125
 10
4.8830783420138886
 20
0.7689453125
 10
4.5933458116319441
 20
0.7689453125
 10
4.5933458116319441
 20
0.7689453125
 10
4.5933458116319441
 20
0.9766845703124999
 10
4.558550347222222
 20
1.1082872178819443
 10
4.4893039279513882
 20
1.1644422743055554
 10
4.4197129991319439
 20
1.2205973307291667
 10
4.2564154730902777
 20
1.2485026041666665
 10
3.9994113498263886
 20
1.2485026041666665
 10
3.6941758897569441
 20
1.2485026041666665
 10
3.4974609374999996
 20
1.2216308593749998
 10
3.4092664930555552
 20
1.1678873697916665
 10
3.3207275390624997
 20
1.1144883897569444
 10
3.2766303168402775
 20
0.9945990668402777
 10
3.2766303168402775
 20
0.8092529296875
 10
3.2766303168402775
 20
0.6004801432291667
 10
3.3114257812499996
 20
0.4737006293402777
 10
3.3806722005208329
 20
0.4282253689236111
 10
3.4502631293402777
 20
0.3827501085069444
 10
3.6562798394097218
 20
0.3517442491319444
 10
3.9994113498263886
 20
0.3355523003472222
 10
4.4017985026041666
 20
0.3179823133680556
 10
4.6577690972222214
 20
0.266650390625
 10
4.7666341145833329
 20
0.1822455512152778
 10
4.8758436414930548
 20
0.0974962022569444
 10
4.9302761501736105
 20
-0.0919840494791667
 10
4.9302761501736105
 20
-0.3861952039930555
 10
4.9302761501736105
 20
-0.7045220269097222
 10
4.8675754123263886
 20
-0.9101942274305555
 10
4.7418294270833332
 20
-1.0035563151041667
 10
4.616083441840277
 20
-1.0972629123263888
 10
4.3387532552083332
 20
-1.1437717013888888
 10
3.9091498480902773
 20
-1.1437717013888888
 10
3.5367350260416663
 20
-1.1437717013888888
 10
3.2886881510416663
 20
-1.0965738932291667
 10
3.1656982421874997
 20
-1.0025227864583333
 10
3.0423638237847221
 20
-0.9081271701388888
 10
2.9806966145833331
 20
-0.7183024088541666
 10
2.9806966145833331
 20
-0.4323594835069444
 10
2.9806966145833331
 20
-0.4323594835069444
 10
2.9789740668402773
 20
-0.3169487847222222
 10
2.9789740668402773
 20
-0.3169487847222222
 10
2.9789740668402773
 20
-0.3169487847222222
 10
3.2687065972222218
 20
-0.3169487847222222
 10
3.2687065972222218
 20
-0.3169487847222222
 10
3.2687065972222218
 20
-0.3169487847222222
 10
3.2687065972222218
 20
-0.3813720703125
 10
3.2687065972222218
 20
-0.3813720703125
 10
3.2687065972222218
 20
-0.6121934678819444
 10
3.3041910807291663
 20
-0.7555094401041667
 10
3.374815538194444
 20
-0.8116644965277777
 10
3.4454399956597217
 20
-0.8678195529513888
 10
3.6263075086805552
 20
-0.8957248263888888
 10
3.917418077256944
 20
-0.8957248263888888
 10
4.2515923394097221
 20
-0.8957248263888888
 10
4.4569200303819443
 20
-0.8678195529513888
 10
4.5337456597222214
 20
-0.8113199869791666
 10
4.6109157986111109
 20
-0.7551649305555555
 10
4.6491563585069438
 20
-0.6053032769097222
 10
4.6491563585069438
 20
-0.3613905164930555
 10
4.6491563585069438
 20
-0.2036051432291667
 10
4.6229736328124993
 20
-0.0985297309027778
 10
4.5709526909722218
 20
-0.0458197699652778
 10
4.5185872395833329
 20
0.0065456814236111
 10
4.4093777126736109
 20
0.0375515407986111
 10
4.2429796006944445
 20
0.0478868272569444
 10
4.2429796006944445
 20
0.0478868272569444
 10
3.9408447265624997
 20
0.0630452473958333
 10
3.9408447265624997
 20
0.0630452473958333
 10
3.9408447265624997
 20
0.0630452473958333
 10
3.653523763020833
 20
0.0782036675347222
 10
3.653523763020833
 20
0.0782036675347222
 10
3.2149631076388885
 20
0.1085205078125
 10
2.9955105251736107
 20
0.3355523003472222
 10
2.9955105251736107
 20
0.7599880642361111
 10
2.9955105251736107
 20
1.0538547092013888
 10
3.0592447916666665
 20
1.2502251519097221
 10
3.1870578342013887
 20
1.3487548828124998
 10
3.3145263671874998
 20
1.4472846137152777
 10
3.5691189236111107
 20
1.4965494791666665
 10
3.9508355034722218
 20
1.4965494791666665
 10
4.3373752170138884
 20
1.4965494791666665
 10
4.589556206597222
 20
1.4507297092013887
 10
4.7070339626736111
 20
1.3590901692708333
 10
4.8245117187499993
 20
1.2674506293402776
 10
4.8830783420138886
 20
1.0707356770833332
 10
4.8830783420138886
 20
0.7689453125
 97
        0
 75
     0
 76
     1
 98
        1
 10
0.0
 20
0.0
  0
HATCH
  5
31
100
AcDbEntity
  8
LAYER_1
 62
     7
100
AcDbHatch
 10
0.0
 20
0.0
 30
0.0
210
0.0
220
0.0
230
1.0
  2
SOLID
 70
     1
 71
     0
 91
        2
 92
       16
 93
        1
 72
     4
 94
        3
 73
     0
 74
     0
 95
       29
 96
       25
 40
0.0
 40
0.0
 40
0.0
 40
0.0
 40
1.0
 40
1.0
 40
1.0
 40
2.0
 40
2.0
 40
2.0
 40
3.0
 40
3.0
 40
3.0
 40
4.0
 40
4.0
 40
4.0
 40
5.0
 40
5.0
 40
5.0
 40
6.0
 40
6.0
 40
6.0
 40
7.0
 40
7.0
 40
7.0
 40
8.0
 40
8.0
 40
8.0
 40
8.0
 10
6.0302951388888886
 20
0.4988498263888889
 10
5.7970621744791657
 20
0.4988498263888889
 10
5.6527126736111102
 20
0.4606092664930555
 10
5.5969021267361105
 20
0.38447265625
 10
5.5410915798611109
 20
0.3079915364583333
 10
5.5131863064236102
 20
0.1092095269097222
 10
5.5131863064236102
 20
-0.2122178819444444
 10
5.5131863064236102
 20
-0.5336452907986111
 10
5.5410915798611109
 20
-0.7327718098958332
 10
5.5969021267361105
 20
-0.8089084201388889
 10
5.6527126736111102
 20
-0.8850450303819444
 10
5.7970621744791657
 20
-0.9232855902777777
 10
6.0302951388888886
 20
-0.9232855902777777
 10
6.2649061414930554
 20
-0.9232855902777777
 10
6.4099446614583329
 20
-0.8850450303819444
 10
6.4657552083333325
 20
-0.8089084201388889
 10
6.521565755208333
 20
-0.7327718098958332
 10
6.5494710286458329
 20
-0.5336452907986111
 10
6.5494710286458329
 20
-0.2122178819444444
 10
6.5494710286458329
 20
0.1092095269097222
 10
6.521565755208333
 20
0.3079915364583333
 10
6.4657552083333325
 20
0.38447265625
 10
6.4099446614583329
 20
0.4606092664930555
 10
6.2649061414930554
 20
0.4988498263888889
 10
6.0302951388888886
 20
0.4988498263888889
 97
        0
 92
        1
 93
        1
 72
     4
 94
        3
 73
     0
 74
     0
 95
       29
 96
       25
 40
0.0
 40
0.0
 40
0.0
 40
0.0
 40
1.0
 40
1.0
 40
1.0
 40
2.0
 40
2.0
 40
2.0
 40
3.0
 40
3.0
 40
3.0
 40
4.0
 40
4.0
 40
4.0
 40
5.0
 40
5.0
 40
5.0
 40
6.0
 40
6.0
 40
6.0
 40
7.0
 40
7.0
 40
7.0
 40
8.0
 40
8.0
 40
8.0
 40
8.0
 10
6.0302951388888886
 20
0.7193359374999999
 10
6.3644694010416663
 20
0.7193359374999999
 10
6.5815104166666663
 20
0.6611138237847222
 10
6.6810736762152771
 20
0.5450141059027778
 10
6.780636935763888
 20
0.4289143880208333
 10
6.8305908203124996
 20
0.1767333984375
 10
6.8305908203124996
 20
-0.2122178819444444
 10
6.8305908203124996
 20
-0.6011691623263888
 10
6.780636935763888
 20
-0.8533501519097222
 10
6.6810736762152771
 20
-0.9697943793402777
 10
6.5815104166666663
 20
-1.085549587673611
 10
6.3644694010416663
 20
-1.1437717013888888
 10
6.0302951388888886
 20
-1.1437717013888888
 10
5.6974989149305548
 20
-1.1437717013888888
 10
5.4811469184027777
 20
-1.085549587673611
 10
5.3815836588541659
 20
-0.9697943793402777
 10
5.2816758897569436
 20
-0.8533501519097222
 10
5.2320665147569443
 20
-0.6011691623263888
 10
5.2320665147569443
 20
-0.2122178819444444
 10
5.2320665147569443
 20
0.1767333984375
 10
5.2816758897569436
 20
0.4289143880208333
 10
5.3815836588541659
 20
0.5450141059027778
 10
5.4811469184027777
 20
0.6611138237847222
 10
5.6974989149305548
 20
0.7193359374999999
 10
6.0302951388888886
 20
0.7193359374999999
 97
        0
 75
     0
 76
     1
 98
        1
 10
0.0
 20
0.0
  0
HATCH
  5
30
100
AcDbEntity
  8
LAYER_1
 62
     7
100
AcDbHatch
 10
0.0
 20
0.0
 30
0.0
210
0.0
220
0.0
230
1.0
  2
SOLID
 70
     1
 71
     0
 91
        1
 92
        1
 93
        1
 72
     4
 94
        3
 73
     0
 74
     0
 95
       17
 96
       13
 40
0.0
 40
0.0
 40
0.0
 40
0.0
 40
1.0
 40
1.0
 40
1.0
 40
2.0
 40
2.0
 40
2.0
 40
3.0
 40
3.0
 40
3.0
 40
4.0
 40
4.0
 40
4.0
 40
4.0
 10
7.524777560763888
 20
1.4689887152777776
 10
7.524777560763888
 20
1.4689887152777776
 10
7.524777560763888
 20
-1.1162109375
 10
7.524777560763888
 20
-1.1162109375
 10
7.524777560763888
 20
-1.1162109375
 10
7.2601942274305546
 20
-1.1162109375
 10
7.2601942274305546
 20
-1.1162109375
 10
7.2601942274305546
 20
-1.1162109375
 10
7.2601942274305546
 20
1.4689887152777776
 10
7.2601942274305546
 20
1.4689887152777776
 10
7.2601942274305546
 20
1.4689887152777776
 10
7.524777560763888
 20
1.4689887152777776
 10
7.524777560763888
 20
1.4689887152777776
 97
        0
 75
     0
 76
     1
 98
        1
 10
0.0
 20
0.0
  0
HATCH
  5
2F
100
AcDbEntity
  8
LAYER_1
 62
     7
100
AcDbHatch
 10
0.0
 20
0.0
 30
0.0
210
0.0
220
0.0
230
1.0
  2
SOLID
 70
     1
 71
     0
 91
        1
 92
        1
 93
        1
 72
     4
 94
        3
 73
     0
 74
     0
 95
       50
 96
       46
 40
0.0
 40
0.0
 40
0.0
 40
0.0
 40
1.0
 40
1.0
 40
1.0
 40
2.0
 40
2.0
 40
2.0
 40
3.0
 40
3.0
 40
3.0
 40
4.0
 40
4.0
 40
4.0
 40
5.0
 40
5.0
 40
5.0
 40
6.0
 40
6.0
 40
6.0
 40
7.0
 40
7.0
 40
7.0
 40
8.0
 40
8.0
 40
8.0
 40
9.0
 40
9.0
 40
9.0
 40
10.0
 40
10.0
 40
10.0
 40
11.0
 40
11.0
 40
11.0
 40
12.0
 40
12.0
 40
12.0
 40
13.0
 40
13.0
 40
13.0
 40
14.0
 40
14.0
 40
14.0
 40
15.0
 40
15.0
 40
15.0
 40
15.0
 10
9.4843478732638875
 20
0.6972873263888888
 10
9.4843478732638875
 20
0.6972873263888888
 10
9.4843478732638875
 20
-1.1162109375
 10
9.4843478732638875
 20
-1.1162109375
 10
9.4843478732638875
 20
-1.1162109375
 10
9.219764539930555
 20
-1.1162109375
 10
9.219764539930555
 20
-1.1162109375
 10
9.219764539930555
 20
-1.1162109375
 10
9.2387125651041657
 20
-0.8791883680555555
 10
9.2387125651041657
 20
-0.8791883680555555
 10
9.2387125651041657
 20
-0.8791883680555555
 10
9.2328559027777768
 20
-0.8733317057291666
 10
9.2328559027777768
 20
-0.8733317057291666
 10
9.1408718532986111
 20
-1.0538547092013888
 10
8.9438123914930543
 20
-1.1437717013888888
 10
8.64167751736111
 20
-1.1437717013888888
 10
8.2186197916666668
 20
-1.1437717013888888
 10
8.0070909288194443
 20
-0.9322428385416666
 10
8.0070909288194443
 20
-0.5091851128472221
 10
8.0070909288194443
 20
-0.5091851128472221
 10
8.0070909288194443
 20
0.6972873263888888
 10
8.0070909288194443
 20
0.6972873263888888
 10
8.0070909288194443
 20
0.6972873263888888
 10
8.2716742621527768
 20
0.6972873263888888
 10
8.2716742621527768
 20
0.6972873263888888
 10
8.2716742621527768
 20
0.6972873263888888
 10
8.2716742621527768
 20
-0.5091851128472221
 10
8.2716742621527768
 20
-0.5091851128472221
 10
8.2716742621527768
 20
-0.6738606770833333
 10
8.2988905164930546
 20
-0.7841037326388888
 10
8.3529785156249989
 20
-0.8395697699652777
 10
8.4074110243055546
 20
-0.8953803168402778
 10
8.5142089843749993
 20
-0.9232855902777777
 10
8.6737169053819443
 20
-0.9232855902777777
 10
8.8821451822916657
 20
-0.9232855902777777
 10
9.0254611545138879
 20
-0.8819444444444444
 10
9.1029758029513879
 20
-0.7989176432291666
 10
9.1808349609374993
 20
-0.7162353515625
 10
9.219764539930555
 20
-0.5639621310763888
 10
9.219764539930555
 20
-0.3420979817708333
 10
9.219764539930555
 20
-0.3420979817708333
 10
9.219764539930555
 20
0.6972873263888888
 10
9.219764539930555
 20
0.6972873263888888
 10
9.219764539930555
 20
0.6972873263888888
 10
9.4843478732638875
 20
0.6972873263888888
 10
9.4843478732638875
 20
0.6972873263888888
 97
        0
 75
     0
 76
     1
 98
        1
 10
0.0
 20
0.0
  0
HATCH
  5
2E
100
AcDbEntity
  8
LAYER_1
 62
     7
100
AcDbHatch
 10
0.0
 20
0.0
 30
0.0
210
0.0
220
0.0
230
1.0
  2
SOLID
 70
     1
 71
     0
 91
        1
 92
        1
 93
        1
 72
     4
 94
        3
 73
     0
 74
     0
 95
       65
 96
       61
 40
0.0
 40
0.0
 40
0.0
 40
0.0
 40
1.0
 40
1.0
 40
1.0
 40
2.0
 40
2.0
 40
2.0
 40
3.0
 40
3.0
 40
3.0
 40
4.0
 40
4.0
 40
4.0
 40
5.0
 40
5.0
 40
5.0
 40
6.0
 40
6.0
 40
6.0
 40
7.0
 40
7.0
 40
7.0
 40
8.0
 40
8.0
 40
8.0
 40
9.0
 40
9.0
 40
9.0
 40
10.0
 40
10.0
 40
10.0
 40
11.0
 40
11.0
 40
11.0
 40
12.0
 40
12.0
 40
12.0
 40
13.0
 40
13.0
 40
13.0
 40
14.0
 40
14.0
 40
14.0
 40
15.0
 40
15.0
 40
15.0
 40
16.0
 40
16.0
 40
16.0
 40
17.0
 40
17.0
 40
17.0
 40
18.0
 40
18.0
 40
18.0
 40
19.0
 40
19.0
 40
19.0
 40
20.0
 40
20.0
 40
20.0
 40
20.0
 10
10.956092664930555
 20
0.6972873263888888
 10
10.956092664930555
 20
0.6972873263888888
 10
10.956092664930555
 20
0.4768012152777778
 10
10.956092664930555
 20
0.4768012152777778
 10
10.956092664930555
 20
0.4768012152777778
 10
10.256049262152777
 20
0.4768012152777778
 10
10.256049262152777
 20
0.4768012152777778
 10
10.256049262152777
 20
0.4768012152777778
 10
10.256049262152777
 20
-0.6311414930555555
 10
10.256049262152777
 20
-0.6311414930555555
 10
10.256049262152777
 20
-0.8257893880208332
 10
10.342176649305555
 20
-0.9232855902777777
 10
10.514775933159722
 20
-0.9232855902777777
 10
10.685997178819443
 20
-0.9232855902777777
 10
10.771435546874999
 20
-0.8361246744791666
 10
10.771435546874999
 20
-0.6614583333333333
 10
10.771435546874999
 20
-0.6614583333333333
 10
10.774191623263889
 20
-0.5722303602430555
 10
10.774191623263889
 20
-0.5722303602430555
 10
10.774191623263889
 20
-0.5722303602430555
 10
10.777292209201388
 20
-0.4712890625
 10
10.777292209201388
 20
-0.4712890625
 10
10.777292209201388
 20
-0.4712890625
 10
11.024305555555555
 20
-0.4712890625
 10
11.024305555555555
 20
-0.4712890625
 10
11.024305555555555
 20
-0.4712890625
 10
11.027750651041666
 20
-0.6066813151041666
 10
11.027750651041666
 20
-0.6066813151041666
 10
11.027750651041666
 20
-0.9646267361111111
 10
10.857562934027778
 20
-1.1437717013888888
 10
10.517876519097221
 20
-1.1437717013888888
 10
10.166821289062499
 20
-1.1437717013888888
 10
9.9914659288194443
 20
-0.9945990668402777
 10
9.9914659288194443
 20
-0.6955647786458332
 10
9.9914659288194443
 20
-0.6955647786458332
 10
9.9914659288194443
 20
-0.6311414930555555
 10
9.9914659288194443
 20
-0.6311414930555555
 10
9.9914659288194443
 20
-0.6311414930555555
 10
9.9914659288194443
 20
0.4768012152777778
 10
9.9914659288194443
 20
0.4768012152777778
 10
9.9914659288194443
 20
0.4768012152777778
 10
9.7434190538194443
 20
0.4768012152777778
 10
9.7434190538194443
 20
0.4768012152777778
 10
9.7434190538194443
 20
0.4768012152777778
 10
9.7434190538194443
 20
0.6972873263888888
 10
9.7434190538194443
 20
0.6972873263888888
 10
9.7434190538194443
 20
0.6972873263888888
 10
9.9914659288194443
 20
0.6972873263888888
 10
9.9914659288194443
 20
0.6972873263888888
 10
9.9914659288194443
 20
0.6972873263888888
 10
9.9914659288194443
 20
1.1327473958333332
 10
9.9914659288194443
 20
1.1327473958333332
 10
9.9914659288194443
 20
1.1327473958333332
 10
10.256049262152777
 20
1.1327473958333332
 10
10.256049262152777
 20
1.1327473958333332
 10
10.256049262152777
 20
1.1327473958333332
 10
10.256049262152777
 20
0.6972873263888888
 10
10.256049262152777
 20
0.6972873263888888
 10
10.256049262152777
 20
0.6972873263888888
 10
10.956092664930555
 20
0.6972873263888888
 10
10.956092664930555
 20
0.6972873263888888
 97
        0
 75
     0
 76
     1
 98
        1
 10
0.0
 20
0.0
  0
HATCH
  5
2D
100
AcDbEntity
  8
LAYER_1
 62
     7
100
AcDbHatch
 10
0.0
 20
0.0
 30
0.0
210
0.0
220
0.0
230
1.0
  2
SOLID
 70
     1
 71
     0
 91
        2
 92
        1
 93
        1
 72
     4
 94
        3
 73
     0
 74
     0
 95
       17
 96
       13
 40
0.0
 40
0.0
 40
0.0
 40
0.0
 40
1.0
 40
1.0
 40
1.0
 40
2.0
 40
2.0
 40
2.0
 40
3.0
 40
3.0
 40
3.0
 40
4.0
 40
4.0
 40
4.0
 40
4.0
 10
11.535213216145833
 20
0.6972873263888888
 10
11.535213216145833
 20
0.6972873263888888
 10
11.535213216145833
 20
-1.1162109375
 10
11.535213216145833
 20
-1.1162109375
 10
11.535213216145833
 20
-1.1162109375
 10
11.270629882812498
 20
-1.1162109375
 10
11.270629882812498
 20
-1.1162109375
 10
11.270629882812498
 20
-1.1162109375
 10
11.270629882812498
 20
0.6972873263888888
 10
11.270629882812498
 20
0.6972873263888888
 10
11.270629882812498
 20
0.6972873263888888
 10
11.535213216145833
 20
0.6972873263888888
 10
11.535213216145833
 20
0.6972873263888888
 97
        0
 92
        1
 93
        1
 72
     4
 94
        3
 73
     0
 74
     0
 95
       17
 96
       13
 40
0.0
 40
0.0
 40
0.0
 40
0.0
 40
1.0
 40
1.0
 40
1.0
 40
2.0
 40
2.0
 40
2.0
 40
3.0
 40
3.0
 40
3.0
 40
4.0
 40
4.0
 40
4.0
 40
4.0
 10
11.535213216145833
 20
1.4689887152777776
 10
11.535213216145833
 20
1.4689887152777776
 10
11.535213216145833
 20
1.1713324652777777
 10
11.535213216145833
 20
1.1713324652777777
 10
11.535213216145833
 20
1.1713324652777777
 10
11.270629882812498
 20
1.1713324652777777
 10
11.270629882812498
 20
1.1713324652777777
 10
11.270629882812498
 20
1.1713324652777777
 10
11.270629882812498
 20
1.4689887152777776
 10
11.270629882812498
 20
1.4689887152777776
 10
11.270629882812498
 20
1.4689887152777776
 10
11.535213216145833
 20
1.4689887152777776
 10
11.535213216145833
 20
1.4689887152777776
 97
        0
 75
     0
 76
     1
 98
        1
 10
0.0
 20
0.0
  0
HATCH
  5
2C
100
AcDbEntity
  8
LAYER_1
 62
     7
100
AcDbHatch
 10
0.0
 20
0.0
 30
0.0
210
0.0
220
0.0
230
1.0
  2
SOLID
 70
     1
 71
     0
 91
        2
 92
       16
 93
        1
 72
     4
 94
        3
 73
     0
 74
     0
 95
       29
 96
       25
 40
0.0
 40
0.0
 40
0.0
 40
0.0
 40
1.0
 40
1.0
 40
1.0
 40
2.0
 40
2.0
 40
2.0
 40
3.0
 40
3.0
 40
3.0
 40
4.0
 40
4.0
 40
4.0
 40
5.0
 40
5.0
 40
5.0
 40
6.0
 40
6.0
 40
6.0
 40
7.0
 40
7.0
 40
7.0
 40
8.0
 40
8.0
 40
8.0
 40
8.0
 10
12.764423285590278
 20
0.4988498263888889
 10
12.531190321180555
 20
0.4988498263888889
 10
12.386496310763889
 20
0.4606092664930555
 10
12.330685763888887
 20
0.38447265625
 10
12.274875217013888
 20
0.3079915364583333
 10
12.247314453124998
 20
0.1092095269097222
 10
12.247314453124998
 20
-0.2122178819444444
 10
12.247314453124998
 20
-0.5336452907986111
 10
12.274875217013888
 20
-0.7327718098958332
 10
12.330685763888887
 20
-0.8089084201388889
 10
12.386496310763889
 20
-0.8850450303819444
 10
12.531190321180555
 20
-0.9232855902777777
 10
12.764423285590278
 20
-0.9232855902777777
 10
12.998689778645833
 20
-0.9232855902777777
 10
13.144072808159722
 20
-0.8850450303819444
 10
13.199883355034721
 20
-0.8089084201388889
 10
13.255693901909721
 20
-0.7327718098958332
 10
13.283599175347222
 20
-0.5336452907986111
 10
13.283599175347222
 20
-0.2122178819444444
 10
13.283599175347222
 20
0.1092095269097222
 10
13.255693901909721
 20
0.3079915364583333
 10
13.199883355034721
 20
0.38447265625
 10
13.144072808159722
 20
0.4606092664930555
 10
12.998689778645833
 20
0.4988498263888889
 10
12.764423285590278
 20
0.4988498263888889
 97
        0
 92
        1
 93
        1
 72
     4
 94
        3
 73
     0
 74
     0
 95
       29
 96
       25
 40
0.0
 40
0.0
 40
0.0
 40
0.0
 40
1.0
 40
1.0
 40
1.0
 40
2.0
 40
2.0
 40
2.0
 40
3.0
 40
3.0
 40
3.0
 40
4.0
 40
4.0
 40
4.0
 40
5.0
 40
5.0
 40
5.0
 40
6.0
 40
6.0
 40
6.0
 40
7.0
 40
7.0
 40
7.0
 40
8.0
 40
8.0
 40
8.0
 40
8.0
 10
12.764423285590278
 20
0.7193359374999999
 10
13.098597547743054
 20
0.7193359374999999
 10
13.315638563368054
 20
0.6611138237847222
 10
13.415201822916666
 20
0.5450141059027778
 10
13.514765082465276
 20
0.4289143880208333
 10
13.564718967013887
 20
0.1767333984375
 10
13.564718967013887
 20
-0.2122178819444444
 10
13.564718967013887
 20
-0.6011691623263888
 10
13.514765082465276
 20
-0.8533501519097222
 10
13.415201822916666
 20
-0.9697943793402777
 10
13.315638563368054
 20
-1.085549587673611
 10
13.098597547743054
 20
-1.1437717013888888
 10
12.764423285590278
 20
-1.1437717013888888
 10
12.431282552083331
 20
-1.1437717013888888
 10
12.214930555555554
 20
-1.085549587673611
 10
12.115367296006943
 20
-0.9697943793402777
 10
12.015804036458333
 20
-0.8533501519097222
 10
11.966194661458331
 20
-0.6011691623263888
 10
11.966194661458331
 20
-0.2122178819444444
 10
11.966194661458331
 20
0.1767333984375
 10
12.015804036458333
 20
0.4289143880208333
 10
12.115367296006943
 20
0.5450141059027778
 10
12.214930555555554
 20
0.6611138237847222
 10
12.431282552083331
 20
0.7193359374999999
 10
12.764423285590278
 20
0.7193359374999999
 97
        0
 75
     0
 76
     1
 98
        1
 10
0.0
 20
0.0
  0
HATCH
  5
2B
100
AcDbEntity
  8
LAYER_1
 62
     7
100
AcDbHatch
 10
0.0
 20
0.0
 30
0.0
210
0.0
220
0.0
230
1.0
  2
SOLID
 70
     1
 71
     0
 91
        1
 92
        1
 93
        1
 72
     4
 94
        3
 73
     0
 74
     0
 95
       53
 96
       49
 40
0.0
 40
0.0
 40
0.0
 40
0.0
 40
1.0
 40
1.0
 40
1.0
 40
2.0
 40
2.0
 40
2.0
 40
3.0
 40
3.0
 40
3.0
 40
4.0
 40
4.0
 40
4.0
 40
5.0
 40
5.0
 40
5.0
 40
6.0
 40
6.0
 40
6.0
 40
7.0
 40
7.0
 40
7.0
 40
8.0
 40
8.0
 40
8.0
 40
9.0
 40
9.0
 40
9.0
 40
10.0
 40
10.0
 40
10.0
 40
11.0
 40
11.0
 40
11.0
 40
12.0
 40
12.0
 40
12.0
 40
13.0
 40
13.0
 40
13.0
 40
14.0
 40
14.0
 40
14.0
 40
15.0
 40
15.0
 40
15.0
 40
16.0
 40
16.0
 40
16.0
 40
16.0
 10
13.994322374131944
 20
0.6972873263888888
 10
13.994322374131944
 20
0.6972873263888888
 10
14.249259440104165
 20
0.6972873263888888
 10
14.249259440104165
 20
0.6972873263888888
 10
14.249259440104165
 20
0.6972873263888888
 10
14.241680230034721
 20
0.4506184895833333
 10
14.241680230034721
 20
0.4506184895833333
 10
14.241680230034721
 20
0.4506184895833333
 10
14.249259440104165
 20
0.4451063368055555
 10
14.249259440104165
 20
0.4451063368055555
 10
14.330219184027776
 20
0.6280409071180555
 10
14.531068250868055
 20
0.7193359374999999
 10
14.85215115017361
 20
0.7193359374999999
 10
15.111222330729165
 20
0.7193359374999999
 10
15.286577690972221
 20
0.6742051866319444
 10
15.378217230902777
 20
0.5835991753472222
 10
15.469856770833331
 20
0.4933376736111111
 10
15.51567654079861
 20
0.3200493706597222
 10
15.51567654079861
 20
0.0637342664930556
 10
15.51567654079861
 20
0.0637342664930556
 10
15.51567654079861
 20
-1.1162109375
 10
15.51567654079861
 20
-1.1162109375
 10
15.51567654079861
 20
-1.1162109375
 10
15.251093207465276
 20
-1.1162109375
 10
15.251093207465276
 20
-1.1162109375
 10
15.251093207465276
 20
-1.1162109375
 10
15.251093207465276
 20
0.0409966362847222
 10
15.251093207465276
 20
0.0409966362847222
 10
15.251093207465276
 20
0.0409966362847222
 10
15.251093207465276
 20
0.1092095269097222
 10
15.251093207465276
 20
0.1092095269097222
 10
15.251093207465276
 20
0.2628607855902778
 10
15.22112087673611
 20
0.3662136501736111
 10
15.161865234374998
 20
0.4192681206597222
 10
15.102265082465276
 20
0.4723225911458333
 10
14.987887912326388
 20
0.4988498263888889
 10
14.81838921440972
 20
0.4988498263888889
 10
14.445285373263888
 20
0.4988498263888889
 10
14.258905707465276
 20
0.3241834852430555
 10
14.258905707465276
 20
-0.0254937065972222
 10
14.258905707465276
 20
-0.0254937065972222
 10
14.258905707465276
 20
-1.1162109375
 10
14.258905707465276
 20
-1.1162109375
 10
14.258905707465276
 20
-1.1162109375
 10
13.994322374131944
 20
-1.1162109375
 10
13.994322374131944
 20
-1.1162109375
 10
13.994322374131944
 20
-1.1162109375
 10
13.994322374131944
 20
0.6972873263888888
 10
13.994322374131944
 20
0.6972873263888888
 97
        0
 75
     0
 76
     1
 98
        1
 10
0.0
 20
0.0
  0
HATCH
  5
2A
100
AcDbEntity
  8
LAYER_1
 62
     7
100
AcDbHatch
 10
0.0
 20
0.0
 30
0.0
210
0.0
220
0.0
230
1.0
  2
SOLID
 70
     1
 71
     0
 91
        1
 92
        1
 93
        1
 72
     4
 94
        3
 73
     0
 74
     0
 95
       86
 96
       82
 40
0.0
 40
0.0
 40
0.0
 40
0.0
 40
1.0
 40
1.0
 40
1.0
 40
2.0
 40
2.0
 40
2.0
 40
3.0
 40
3.0
 40
3.0
 40
4.0
 40
4.0
 40
4.0
 40
5.0
 40
5.0
 40
5.0
 40
6.0
 40
6.0
 40
6.0
 40
7.0
 40
7.0
 40
7.0
 40
8.0
 40
8.0
 40
8.0
 40
9.0
 40
9.0
 40
9.0
 40
10.0
 40
10.0
 40
10.0
 40
11.0
 40
11.0
 40
11.0
 40
12.0
 40
12.0
 40
12.0
 40
13.0
 40
13.0
 40
13.0
 40
14.0
 40
14.0
 40
14.0
 40
15.0
 40
15.0
 40
15.0
 40
16.0
 40
16.0
 40
16.0
 40
17.0
 40
17.0
 40
17.0
 40
18.0
 40
18.0
 40
18.0
 40
19.0
 40
19.0
 40
19.0
 40
20.0
 40
20.0
 40
20.0
 40
21.0
 40
21.0
 40
21.0
 40
22.0
 40
22.0
 40
22.0
 40
23.0
 40
23.0
 40
23.0
 40
24.0
 40
24.0
 40
24.0
 40
25.0
 40
25.0
 40
25.0
 40
26.0
 40
26.0
 40
26.0
 40
27.0
 40
27.0
 40
27.0
 40
27.0
 10
17.41633572048611
 20
0.2232421875
 10
17.41633572048611
 20
0.2232421875
 10
17.151063368055553
 20
0.2232421875
 10
17.151063368055553
 20
0.2232421875
 10
17.151063368055553
 20
0.347265625
 10
17.125225151909721
 20
0.4244357638888889
 10
17.074237738715276
 20
0.4540635850694444
 10
17.023250325520831
 20
0.4840359157986111
 10
16.891647677951386
 20
0.4988498263888889
 10
16.679774305555554
 20
0.4988498263888889
 10
16.483059353298611
 20
0.4988498263888889
 10
16.358002387152776
 20
0.4826578776041666
 10
16.304947916666666
 20
0.4506184895833333
 10
16.251893446180553
 20
0.4182345920138889
 10
16.225710720486109
 20
0.3410644531249999
 10
16.225710720486109
 20
0.2187635633680555
 10
16.225710720486109
 20
0.0334174262152778
 10
16.314594184027776
 20
-0.0637342664930556
 10
16.493050130208331
 20
-0.0726915147569444
 10
16.493050130208331
 20
-0.0726915147569444
 10
16.707335069444444
 20
-0.0840603298611111
 10
16.707335069444444
 20
-0.0840603298611111
 10
16.707335069444444
 20
-0.0840603298611111
 10
16.978464084201388
 20
-0.0971516927083333
 10
16.978464084201388
 20
-0.0971516927083333
 10
17.307126193576387
 20
-0.1136881510416667
 10
17.471457248263889
 20
-0.28525390625
 10
17.471457248263889
 20
-0.6121934678819444
 10
17.471457248263889
 20
-0.8151095920138888
 10
17.417024739583333
 20
-0.9546359592013888
 10
17.308159722222221
 20
-1.0304280598958333
 10
17.19929470486111
 20
-1.1058756510416665
 10
16.999823676215275
 20
-1.1437717013888888
 10
16.710091145833331
 20
-1.1437717013888888
 10
16.412434895833332
 20
-1.1437717013888888
 10
16.207796223958333
 20
-1.1075981987847221
 10
16.095830620659722
 20
-1.0352511935763888
 10
15.98386501736111
 20
-0.9625596788194444
 10
15.92805447048611
 20
-0.8299235026041666
 10
15.92805447048611
 20
-0.6366536458333333
 10
15.92805447048611
 20
-0.6366536458333333
 10
15.930810546874998
 20
-0.5374348958333333
 10
15.930810546874998
 20
-0.5374348958333333
 10
15.930810546874998
 20
-0.5374348958333333
 10
16.205384657118053
 20
-0.5374348958333333
 10
16.205384657118053
 20
-0.5374348958333333
 10
16.205384657118053
 20
-0.5374348958333333
 10
16.209174262152775
 20
-0.6232177734375
 10
16.209174262152775
 20
-0.6232177734375
 10
16.209174262152775
 20
-0.7431070963541666
 10
16.239146592881944
 20
-0.8230333116319444
 10
16.299780273437499
 20
-0.8629964192708333
 10
16.360069444444441
 20
-0.9033040364583332
 10
16.479269748263889
 20
-0.9232855902777777
 10
16.657036675347221
 20
-0.9232855902777777
 10
16.875111219618056
 20
-0.9232855902777777
 10
17.018427191840278
 20
-0.9026150173611111
 10
17.086984592013888
 20
-0.8609293619791666
 10
17.155886501736109
 20
-0.8192437065972221
 10
17.19033745659722
 20
-0.7320827907986111
 10
17.19033745659722
 20
-0.5997911241319444
 10
17.19033745659722
 20
-0.40927734375
 10
17.103521050347222
 20
-0.3138481987847222
 10
16.930577256944442
 20
-0.3138481987847222
 10
16.527156575520831
 20
-0.3138481987847222
 10
16.261884223090277
 20
-0.2800862630208333
 10
16.135104709201386
 20
-0.2118733723958333
 10
16.007980685763886
 20
-0.1436604817708333
 10
15.944590928819443
 20
-0.0024115668402778
 10
15.944590928819443
 20
0.2122178819444444
 10
15.944590928819443
 20
0.4151340060763888
 10
15.994544813368053
 20
0.5505262586805555
 10
16.095141601562499
 20
0.6180501302083333
 10
16.195738389756944
 20
0.6855740017361111
 10
16.395898437499998
 20
0.7193359374999999
 10
16.695621744791666
 20
0.7193359374999999
 10
17.175868055555554
 20
0.7193359374999999
 10
17.41633572048611
 20
0.5756754557291666
 10
17.41633572048611
 20
0.2890435112847222
 10
17.41633572048611
 20
0.2890435112847222
 10
17.41633572048611
 20
0.2232421875
 10
17.41633572048611
 20
0.2232421875
 97
        0
 75
     0
 76
     1
 98
        1
 10
0.0
 20
0.0
  0
HATCH
  5
29
100
AcDbEntity
  8
LAYER_1
 62
     7
100
AcDbHatch
 10
0.0
 20
0.0
 30
0.0
210
0.0
220
0.0
230
1.0
  2
SOLID
 70
     1
 71
     0
 91
        1
 92
        1
 93
        1
 72
     4
 94
        3
 73
     0
 74
     0
 95
       32
 96
       28
 40
0.0
 40
0.0
 40
0.0
 40
0.0
 40
1.0
 40
1.0
 40
1.0
 40
2.0
 40
2.0
 40
2.0
 40
3.0
 40
3.0
 40
3.0
 40
4.0
 40
4.0
 40
4.0
 40
5.0
 40
5.0
 40
5.0
 40
6.0
 40
6.0
 40
6.0
 40
7.0
 40
7.0
 40
7.0
 40
8.0
 40
8.0
 40
8.0
 40
9.0
 40
9.0
 40
9.0
 40
9.0
 10
18.167366536458331
 20
-0.7689453125
 10
18.167366536458331
 20
-0.7689453125
 10
18.167366536458331
 20
-1.1427381727430554
 10
18.167366536458331
 20
-1.1427381727430554
 10
18.167366536458331
 20
-1.3783827039930554
 10
18.081239149305553
 20
-1.4965494791666665
 10
17.908984374999999
 20
-1.4965494791666665
 10
17.892447916666665
 20
-1.4965494791666665
 10
17.868332248263886
 20
-1.4955159505208333
 10
17.836637369791664
 20
-1.4934488932291665
 10
17.836637369791664
 20
-1.4934488932291665
 10
17.836637369791664
 20
-1.3494439019097222
 10
17.836637369791664
 20
-1.3494439019097222
 10
17.946880425347221
 20
-1.3428982204861111
 10
18.002001953124999
 20
-1.2874321831597222
 10
18.002001953124999
 20
-1.1827012803819443
 10
18.002001953124999
 20
-1.1827012803819443
 10
17.998556857638889
 20
-1.1162109375
 10
17.998556857638889
 20
-1.1162109375
 10
17.998556857638889
 20
-1.1162109375
 10
17.875222439236108
 20
-1.1162109375
 10
17.875222439236108
 20
-1.1162109375
 10
17.875222439236108
 20
-1.1162109375
 10
17.875222439236108
 20
-0.7689453125
 10
17.875222439236108
 20
-0.7689453125
 10
17.875222439236108
 20
-0.7689453125
 10
18.167366536458331
 20
-0.7689453125
 10
18.167366536458331
 20
-0.7689453125
 97
        0
 75
     0
 76
     1
 98
        1
 10
0.0
 20
0.0
  0
HATCH
  5
28
100
AcDbEntity
  8
LAYER_1
 62
     7
100
AcDbHatch
 10
0.0
 20
0.0
 30
0.0
210
0.0
220
0.0
230
1.0
  2
SOLID
 70
     1
 71
     0
 91
        1
 92
        1
 93
        1
 72
     4
 94
        3
 73
     0
 74
     0
 95
       17
 96
       13
 40
0.0
 40
0.0
 40
0.0
 40
0.0
 40
1.0
 40
1.0
 40
1.0
 40
2.0
 40
2.0
 40
2.0
 40
3.0
 40
3.0
 40
3.0
 40
4.0
 40
4.0
 40
4.0
 40
4.0
 10
19.94331325954861
 20
1.4689887152777776
 10
19.94331325954861
 20
1.4689887152777776
 10
19.94331325954861
 20
-1.1162109375
 10
19.94331325954861
 20
-1.1162109375
 10
19.94331325954861
 20
-1.1162109375
 10
19.651169162326386
 20
-1.1162109375
 10
19.651169162326386
 20
-1.1162109375
 10
19.651169162326386
 20
-1.1162109375
 10
19.651169162326386
 20
1.4689887152777776
 10
19.651169162326386
 20
1.4689887152777776
 10
19.651169162326386
 20
1.4689887152777776
 10
19.94331325954861
 20
1.4689887152777776
 10
19.94331325954861
 20
1.4689887152777776
 97
        0
 75
     0
 76
     1
 98
        1
 10
0.0
 20
0.0
  0
HATCH
  5
27
100
AcDbEntity
  8
LAYER_1
 62
     7
100
AcDbHatch
 10
0.0
 20
0.0
 30
0.0
210
0.0
220
0.0
230
1.0
  2
SOLID
 70
     1
 71
     0
 91
        1
 92
        1
 93
        1
 72
     4
 94
        3
 73
     0
 74
     0
 95
       53
 96
       49
 40
0.0
 40
0.0
 40
0.0
 40
0.0
 40
1.0
 40
1.0
 40
1.0
 40
2.0
 40
2.0
 40
2.0
 40
3.0
 40
3.0
 40
3.0
 40
4.0
 40
4.0
 40
4.0
 40
5.0
 40
5.0
 40
5.0
 40
6.0
 40
6.0
 40
6.0
 40
7.0
 40
7.0
 40
7.0
 40
8.0
 40
8.0
 40
8.0
 40
9.0
 40
9.0
 40
9.0
 40
10.0
 40
10.0
 40
10.0
 40
11.0
 40
11.0
 40
11.0
 40
12.0
 40
12.0
 40
12.0
 40
13.0
 40
13.0
 40
13.0
 40
14.0
 40
14.0
 40
14.0
 40
15.0
 40
15.0
 40
15.0
 40
16.0
 40
16.0
 40
16.0
 40
16.0
 10
20.440096028645833
 20
0.6972873263888888
 10
20.440096028645833
 20
0.6972873263888888
 10
20.695377604166666
 20
0.6972873263888888
 10
20.695377604166666
 20
0.6972873263888888
 10
20.695377604166666
 20
0.6972873263888888
 10
20.687798394097221
 20
0.4506184895833333
 10
20.687798394097221
 20
0.4506184895833333
 10
20.687798394097221
 20
0.4506184895833333
 10
20.695377604166666
 20
0.4451063368055555
 10
20.695377604166666
 20
0.4451063368055555
 10
20.776337348090276
 20
0.6280409071180555
 10
20.977186414930554
 20
0.7193359374999999
 10
21.298269314236109
 20
0.7193359374999999
 10
21.557340494791664
 20
0.7193359374999999
 10
21.732351345486109
 20
0.6742051866319444
 10
21.823990885416666
 20
0.5835991753472222
 10
21.915630425347221
 20
0.4933376736111111
 10
21.961450195312498
 20
0.3200493706597222
 10
21.961450195312498
 20
0.0637342664930556
 10
21.961450195312498
 20
0.0637342664930556
 10
21.961450195312498
 20
-1.1162109375
 10
21.961450195312498
 20
-1.1162109375
 10
21.961450195312498
 20
-1.1162109375
 10
21.696866861979164
 20
-1.1162109375
 10
21.696866861979164
 20
-1.1162109375
 10
21.696866861979164
 20
-1.1162109375
 10
21.696866861979164
 20
0.0409966362847222
 10
21.696866861979164
 20
0.0409966362847222
 10
21.696866861979164
 20
0.0409966362847222
 10
21.696866861979164
 20
0.1092095269097222
 10
21.696866861979164
 20
0.1092095269097222
 10
21.696866861979164
 20
0.2628607855902778
 10
21.667239040798609
 20
0.3662136501736111
 10
21.607638888888886
 20
0.4192681206597222
 10
21.548383246527777
 20
0.4723225911458333
 10
21.434006076388886
 20
0.4988498263888889
 10
21.264507378472221
 20
0.4988498263888889
 10
20.891403537326386
 20
0.4988498263888889
 10
20.704679361979164
 20
0.3241834852430555
 10
20.704679361979164
 20
-0.0254937065972222
 10
20.704679361979164
 20
-0.0254937065972222
 10
20.704679361979164
 20
-1.1162109375
 10
20.704679361979164
 20
-1.1162109375
 10
20.704679361979164
 20
-1.1162109375
 10
20.440096028645833
 20
-1.1162109375
 10
20.440096028645833
 20
-1.1162109375
 10
20.440096028645833
 20
-1.1162109375
 10
20.440096028645833
 20
0.6972873263888888
 10
20.440096028645833
 20
0.6972873263888888
 97
        0
 75
     0
 76
     1
 98
        1
 10
0.0
 20
0.0
  0
HATCH
  5
26
100
AcDbEntity
  8
LAYER_1
 62
     7
100
AcDbHatch
 10
0.0
 20
0.0
 30
0.0
210
0.0
220
0.0
230
1.0
  2
SOLID
 70
     1
 71
     0
 91
        1
 92
        1
 93
        1
 72
     4
 94
        3
 73
     0
 74
     0
 95
       62
 96
       58
 40
0.0
 40
0.0
 40
0.0
 40
0.0
 40
1.0
 40
1.0
 40
1.0
 40
2.0
 40
2.0
 40
2.0
 40
3.0
 40
3.0
 40
3.0
 40
4.0
 40
4.0
 40
4.0
 40
5.0
 40
5.0
 40
5.0
 40
6.0
 40
6.0
 40
6.0
 40
7.0
 40
7.0
 40
7.0
 40
8.0
 40
8.0
 40
8.0
 40
9.0
 40
9.0
 40
9.0
 40
10.0
 40
10.0
 40
10.0
 40
11.0
 40
11.0
 40
11.0
 40
12.0
 40
12.0
 40
12.0
 40
13.0
 40
13.0
 40
13.0
 40
14.0
 40
14.0
 40
14.0
 40
15.0
 40
15.0
 40
15.0
 40
16.0
 40
16.0
 40
16.0
 40
17.0
 40
17.0
 40
17.0
 40
18.0
 40
18.0
 40
18.0
 40
19.0
 40
19.0
 40
19.0
 40
19.0
 10
23.703290473090277
 20
-0.4602647569444444
 10
23.703290473090277
 20
-0.4602647569444444
 10
23.968562825520831
 20
-0.4602647569444444
 10
23.968562825520831
 20
-0.4602647569444444
 10
23.968562825520831
 20
-0.4602647569444444
 10
23.972696940104164
 20
-0.5591389973958333
 10
23.972696940104164
 20
-0.5591389973958333
 10
23.972696940104164
 20
-0.9491238064236111
 10
23.718448893229166
 20
-1.1437717013888888
 10
23.210641818576388
 20
-1.1437717013888888
 10
22.884735785590276
 20
-1.1437717013888888
 10
22.66941731770833
 20
-1.0827935112847222
 10
22.564341905381941
 20
-0.9601481119791666
 10
22.459611002604163
 20
-0.837502712673611
 10
22.407245551215276
 20
-0.5853217230902778
 10
22.407245551215276
 20
-0.2029161241319444
 10
22.407245551215276
 20
0.1557183159722222
 10
22.460300021701386
 20
0.3989420572916667
 10
22.567097981770832
 20
0.527099609375
 10
22.673551432291664
 20
0.6552571614583332
 10
22.876467556423609
 20
0.7193359374999999
 10
23.175501844618054
 20
0.7193359374999999
 10
23.469368489583331
 20
0.7193359374999999
 10
23.669873046874997
 20
0.6762722439236111
 10
23.777360026041663
 20
0.5894558376736111
 10
23.884502495659721
 20
0.5033284505208333
 10
23.938245985243054
 20
0.3407199435763889
 10
23.938245985243054
 20
0.1019748263888889
 10
23.938245985243054
 20
0.1019748263888889
 10
23.672973632812496
 20
0.1019748263888889
 10
23.672973632812496
 20
0.1019748263888889
 10
23.672973632812496
 20
0.1019748263888889
 10
23.675040690104165
 20
0.1491726345486111
 10
23.675040690104165
 20
0.1491726345486111
 10
23.675040690104165
 20
0.2890435112847222
 10
23.640245225694443
 20
0.3820610894097222
 10
23.57099880642361
 20
0.4289143880208333
 10
23.501752387152777
 20
0.4754231770833333
 10
23.363604058159719
 20
0.4988498263888889
 10
23.156898328993055
 20
0.4988498263888889
 10
22.957771809895831
 20
0.4988498263888889
 10
22.829958767361109
 20
0.4547526041666666
 10
22.773114691840277
 20
0.3665581597222222
 10
22.716615125868053
 20
0.2780192057291667
 10
22.688365342881941
 20
0.0802707248263889
 10
22.688365342881941
 20
-0.2273763020833333
 10
22.688365342881941
 20
-0.5274441189236111
 10
22.720749240451386
 20
-0.7183024088541666
 10
22.785517035590274
 20
-0.8002956814236111
 10
22.850284830729166
 20
-0.8822889539930555
 10
23.001524522569444
 20
-0.9232855902777777
 10
23.239236111111108
 20
-0.9232855902777777
 10
23.440429687499996
 20
-0.9232855902777777
 10
23.567898220486111
 20
-0.896413845486111
 10
23.621986219618055
 20
-0.8423258463541666
 10
23.676074218749999
 20
-0.7885823567708332
 10
23.703290473090277
 20
-0.6611138237847222
 10
23.703290473090277
 20
-0.4602647569444444
 97
        0
 75
     0
 76
     1
 98
        1
 10
0.0
 20
0.0
  0
HATCH
  5
25
100
AcDbEntity
  8
LAYER_1
 62
     7
100
AcDbHatch
 10
0.0
 20
0.0
 30
0.0
210
0.0
220
0.0
230
1.0
  2
SOLID
 70
     1
 71
     0
 91
        1
 92
        1
 93
        1
 72
     4
 94
        3
 73
     0
 74
     0
 95
       17
 96
       13
 40
0.0
 40
0.0
 40
0.0
 40
0.0
 40
1.0
 40
1.0
 40
1.0
 40
2.0
 40
2.0
 40
2.0
 40
3.0
 40
3.0
 40
3.0
 40
4.0
 40
4.0
 40
4.0
 40
4.0
 10
24.645868598090274
 20
-0.7689453125
 10
24.645868598090274
 20
-0.7689453125
 10
24.645868598090274
 20
-1.1162109375
 10
24.645868598090274
 20
-1.1162109375
 10
24.645868598090274
 20
-1.1162109375
 10
24.353724500868054
 20
-1.1162109375
 10
24.353724500868054
 20
-1.1162109375
 10
24.353724500868054
 20
-1.1162109375
 10
24.353724500868054
 20
-0.7689453125
 10
24.353724500868054
 20
-0.7689453125
 10
24.353724500868054
 20
-0.7689453125
 10
24.645868598090274
 20
-0.7689453125
 10
24.645868598090274
 20
-0.7689453125
 97
        0
 75
     0
 76
     1
 98
        1
 10
0.0
 20
0.0
  0
ENDBLK
  5
41
100
AcDbEntity
  8
LAYER_1
100
AcDbBlockEnd
  0
ENDSEC
  0
SECTION
  2
ENTITIES
  0
SPLINE
  5
10E
100
AcDbEntity
  8
LAYER_1
 62
     7
100
AcDbSpline
210
0.0
220
0.0
230
1.0
 70
     8
 71
     3
 72
    44
 73
    40
 74
     0
 42
0.00000001
 43
0.00000001
 40
0.0
 40
0.0
 40
0.0
 40
0.0
 40
1.0
 40
1.0
 40
1.0
 40
2.0
 40
2.0
 40
2.0
 40
3.0
 40
3.0
 40
3.0
 40
4.0
 40
4.0
 40
4.0
 40
5.0
 40
5.0
 40
5.0
 40
6.0
 40
6.0
 40
6.0
 40
7.0
 40
7.0
 40
7.0
 40
8.0
 40
8.0
 40
8.0
 40
9.0
 40
9.0
 40
9.0
 40
10.0
 40
10.0
 40
10.0
 40
11.0
 40
11.0
 40
11.0
 40
12.0
 40
12.0
 40
12.0
 40
13.0
 40
13.0
 40
13.0
 40
13.0
 10
96.170185004340269
 20
230.51133897569443
 30
0.0
 10
96.285251193576386
 20
229.83454996744788
 30
0.0
 10
96.497641330295124
 20
229.34396837022567
 30
0.0
 10
96.61287977430554
 20
228.66717936197915
 30
0.0
 10
98.235864257812494
 20
226.23253038194443
 30
0.0
 10
102.8841593424479
 20
224.59387071397566
 30
0.0
 10
107.67921549479166
 20
224.5356486002604
 30
0.0
 10
112.38280436197915
 20
224.47863226996526
 30
0.0
 10
117.55664876302082
 20
226.24252115885415
 30
0.0
 10
119.11452094184027
 20
228.96207953559025
 30
0.0
 10
119.33569607204861
 20
229.5523966471354
 30
0.0
 10
119.41045464409721
 20
230.17285834418399
 30
0.0
 10
119.40942111545138
 20
230.51133897569443
 30
0.0
 10
129.25171440972221
 20
230.43503011067708
 30
0.0
 10
137.0927517361111
 20
222.04915093315969
 30
0.0
 10
137.0927517361111
 20
213.17131212022568
 30
0.0
 10
137.15510796440972
 20
211.30923800998261
 30
0.0
 10
137.65602484809025
 20
68.473339843749997
 30
0.0
 10
137.65602484809025
 20
64.780541992187494
 30
0.0
 10
137.65602484809025
 20
61.33785807291666
 30
0.0
 10
138.15625271267359
 20
56.894718424479159
 30
0.0
 10
134.4634548611111
 20
53.202265082465274
 30
0.0
 10
132.67992892795138
 20
51.41839463975694
 30
0.0
 10
130.83335774739581
 20
50.761414930555553
 30
0.0
 10
128.51790907118055
 20
50.636013454861107
 30
0.0
 10
124.79307183159722
 20
50.680110677083327
 30
0.0
 10
92.271714952256943
 20
50.485462782118049
 30
0.0
 10
86.982804361979163
 20
50.67666558159722
 30
0.0
 10
84.645307074652777
 20
50.761414930555553
 30
0.0
 10
81.641183810763877
 20
52.701348198784714
 30
0.0
 10
80.327396647135416
 20
54.704326714409717
 30
0.0
 10
79.289561631944437
 20
56.286659071180551
 30
0.0
 10
78.692526584201389
 20
58.437776692708326
 30
0.0
 10
78.692526584201389
 20
61.789165581597217
 30
0.0
 10
78.692526584201389
 20
69.553721788194437
 30
0.0
 10
78.340954589843747
 20
211.76519639756941
 30
0.0
 10
78.334753417968741
 20
213.62761501736108
 30
0.0
 10
78.334753417968741
 20
220.84681260850692
 30
0.0
 10
85.767891438802081
 20
230.51133897569443
 30
0.0
 10
96.170185004340269
 20
230.51133897569443
 30
0.0
  0
SPLINE
  5
10D
100
AcDbEntity
  8
LAYER_1
 62
     7
100
AcDbSpline
210
0.0
220
0.0
230
1.0
 70
     8
 71
     3
 72
    29
 73
    25
 74
     0
 42
0.00000001
 43
0.00000001
 40
0.0
 40
0.0
 40
0.0
 40
0.0
 40
1.0
 40
1.0
 40
1.0
 40
2.0
 40
2.0
 40
2.0
 40
3.0
 40
3.0
 40
3.0
 40
4.0
 40
4.0
 40
4.0
 40
5.0
 40
5.0
 40
5.0
 40
6.0
 40
6.0
 40
6.0
 40
7.0
 40
7.0
 40
7.0
 40
8.0
 40
8.0
 40
8.0
 40
8.0
 10
135.6661376953125
 20
88.810083007812494
 30
0.0
 10
135.6661376953125
 20
87.622903103298597
 30
0.0
 10
134.72424858940971
 20
86.659998914930554
 30
0.0
 10
133.56290690104166
 20
86.659998914930554
 30
0.0
 10
133.56290690104166
 20
86.659998914930554
 30
0.0
 10
82.383257378472209
 20
86.659998914930554
 30
0.0
 10
82.383257378472209
 20
86.659998914930554
 30
0.0
 10
81.221743435329856
 20
86.659998914930554
 30
0.0
 10
80.28002658420138
 20
87.622903103298597
 30
0.0
 10
80.28002658420138
 20
88.810083007812494
 30
0.0
 10
80.28002658420138
 20
88.810083007812494
 30
0.0
 10
80.28002658420138
 20
209.39324815538191
 30
0.0
 10
80.28002658420138
 20
209.39324815538191
 30
0.0
 10
80.28002658420138
 20
210.58060031467011
 30
0.0
 10
81.221743435329856
 20
211.54333224826388
 30
0.0
 10
82.383257378472209
 20
211.54333224826388
 30
0.0
 10
82.383257378472209
 20
211.54333224826388
 30
0.0
 10
133.56290690104166
 20
211.54333224826388
 30
0.0
 10
133.56290690104166
 20
211.54333224826388
 30
0.0
 10
134.72424858940971
 20
211.54333224826388
 30
0.0
 10
135.6661376953125
 20
210.58060031467011
 30
0.0
 10
135.6661376953125
 20
209.39324815538191
 30
0.0
 10
135.6661376953125
 20
209.39324815538191
 30
0.0
 10
135.6661376953125
 20
88.810083007812494
 30
0.0
 10
135.6661376953125
 20
88.810083007812494
 30
0.0
  0
SPLINE
  5
10C
100
AcDbEntity
  8
LAYER_1
 62
     7
100
AcDbSpline
210
0.0
220
0.0
230
1.0
 70
     8
 71
     3
 72
    11
 73
     7
 74
     0
 42
0.00000001
 43
0.00000001
 40
0.0
 40
0.0
 40
0.0
 40
0.0
 40
1.0
 40
1.0
 40
1.0
 40
2.0
 40
2.0
 40
2.0
 40
2.0
 10
82.383257378472209
 20
211.54333224826388
 30
0.0
 10
86.630026584201374
 20
212.7780544704861
 30
0.0
 10
99.330026584201377
 20
213.65999891493053
 30
0.0
 10
107.79669325086805
 20
213.65999891493053
 30
0.0
 10
116.79252658420138
 20
213.65999891493053
 30
0.0
 10
127.55224880642361
 20
212.95444335937498
 30
0.0
 10
133.56290690104166
 20
211.54333224826388
 30
0.0
  0
SPLINE
  5
10B
100
AcDbEntity
  8
LAYER_1
 62
     7
100
AcDbSpline
210
0.0
220
0.0
230
1.0
 70
     8
 71
     3
 72
    29
 73
    25
 74
     0
 42
0.00000001
 43
0.00000001
 40
0.0
 40
0.0
 40
0.0
 40
0.0
 40
1.0
 40
1.0
 40
1.0
 40
2.0
 40
2.0
 40
2.0
 40
3.0
 40
3.0
 40
3.0
 40
4.0
 40
4.0
 40
4.0
 40
5.0
 40
5.0
 40
5.0
 40
6.0
 40
6.0
 40
6.0
 40
7.0
 40
7.0
 40
7.0
 40
8.0
 40
8.0
 40
8.0
 40
8.0
 10
92.653259277343736
 20
204.46331651475694
 30
0.0
 10
92.653259277343736
 20
203.34090440538193
 30
0.0
 10
91.729456922743054
 20
202.43088243272567
 30
0.0
 10
90.589647081163193
 20
202.43088243272567
 30
0.0
 10
90.589647081163193
 20
202.43088243272567
 30
0.0
 10
86.41436360677082
 20
202.43088243272567
 30
0.0
 10
86.41436360677082
 20
202.43088243272567
 30
0.0
 10
85.274553765190959
 20
202.43088243272567
 30
0.0
 10
84.350751410590277
 20
203.34090440538193
 30
0.0
 10
84.350751410590277
 20
204.46331651475694
 30
0.0
 10
84.350751410590277
 20
204.46331651475694
 30
0.0
 10
84.350751410590277
 20
204.82419026692708
 30
0.0
 10
84.350751410590277
 20
204.82419026692708
 30
0.0
 10
84.350751410590277
 20
205.94694688585068
 30
0.0
 10
85.274553765190959
 20
206.85696885850692
 30
0.0
 10
86.41436360677082
 20
206.85696885850692
 30
0.0
 10
86.41436360677082
 20
206.85696885850692
 30
0.0
 10
90.589647081163193
 20
206.85696885850692
 30
0.0
 10
90.589647081163193
 20
206.85696885850692
 30
0.0
 10
91.729456922743054
 20
206.85696885850692
 30
0.0
 10
92.653259277343736
 20
205.94694688585068
 30
0.0
 10
92.653259277343736
 20
204.82419026692708
 30
0.0
 10
92.653259277343736
 20
204.82419026692708
 30
0.0
 10
92.653259277343736
 20
204.46331651475694
 30
0.0
 10
92.653259277343736
 20
204.46331651475694
 30
0.0
  0
SPLINE
  5
10A
100
AcDbEntity
  8
LAYER_1
 62
     7
100
AcDbSpline
210
0.0
220
0.0
230
1.0
 70
     8
 71
     3
 72
    29
 73
    25
 74
     0
 42
0.00000001
 43
0.00000001
 40
0.0
 40
0.0
 40
0.0
 40
0.0
 40
1.0
 40
1.0
 40
1.0
 40
2.0
 40
2.0
 40
2.0
 40
3.0
 40
3.0
 40
3.0
 40
4.0
 40
4.0
 40
4.0
 40
5.0
 40
5.0
 40
5.0
 40
6.0
 40
6.0
 40
6.0
 40
7.0
 40
7.0
 40
7.0
 40
8.0
 40
8.0
 40
8.0
 40
8.0
 10
105.41268717447916
 20
204.46331651475694
 30
0.0
 10
105.41268717447916
 20
203.34090440538193
 30
0.0
 10
104.48888481987846
 20
202.43088243272567
 30
0.0
 10
103.3490749782986
 20
202.43088243272567
 30
0.0
 10
103.3490749782986
 20
202.43088243272567
 30
0.0
 10
99.173791503906244
 20
202.43088243272567
 30
0.0
 10
99.173791503906244
 20
202.43088243272567
 30
0.0
 10
98.033981662326383
 20
202.43088243272567
 30
0.0
 10
97.110179307725687
 20
203.34090440538193
 30
0.0
 10
97.110179307725687
 20
204.46331651475694
 30
0.0
 10
97.110179307725687
 20
204.46331651475694
 30
0.0
 10
97.110179307725687
 20
204.82419026692708
 30
0.0
 10
97.110179307725687
 20
204.82419026692708
 30
0.0
 10
97.110179307725687
 20
205.94694688585068
 30
0.0
 10
98.033981662326383
 20
206.85696885850692
 30
0.0
 10
99.173791503906244
 20
206.85696885850692
 30
0.0
 10
99.173791503906244
 20
206.85696885850692
 30
0.0
 10
103.3490749782986
 20
206.85696885850692
 30
0.0
 10
103.3490749782986
 20
206.85696885850692
 30
0.0
 10
104.48888481987846
 20
206.85696885850692
 30
0.0
 10
105.41268717447916
 20
205.94694688585068
 30
0.0
 10
105.41268717447916
 20
204.82419026692708
 30
0.0
 10
105.41268717447916
 20
204.82419026692708
 30
0.0
 10
105.41268717447916
 20
204.46331651475694
 30
0.0
 10
105.41268717447916
 20
204.46331651475694
 30
0.0
  0
SPLINE
  5
109
100
AcDbEntity
  8
LAYER_1
 62
     7
100
AcDbSpline
210
0.0
220
0.0
230
1.0
 70
     8
 71
     3
 72
    29
 73
    25
 74
     0
 42
0.00000001
 43
0.00000001
 40
0.0
 40
0.0
 40
0.0
 40
0.0
 40
1.0
 40
1.0
 40
1.0
 40
2.0
 40
2.0
 40
2.0
 40
3.0
 40
3.0
 40
3.0
 40
4.0
 40
4.0
 40
4.0
 40
5.0
 40
5.0
 40
5.0
 40
6.0
 40
6.0
 40
6.0
 40
7.0
 40
7.0
 40
7.0
 40
8.0
 40
8.0
 40
8.0
 40
8.0
 10
118.28907606336804
 20
204.46331651475694
 30
0.0
 10
118.28907606336804
 20
203.34090440538193
 30
0.0
 10
117.36544596354166
 20
202.43088243272567
 30
0.0
 10
116.22546386718749
 20
202.43088243272567
 30
0.0
 10
116.22546386718749
 20
202.43088243272567
 30
0.0
 10
112.05035264756944
 20
202.43088243272567
 30
0.0
 10
112.05035264756944
 20
202.43088243272567
 30
0.0
 10
110.91037055121527
 20
202.43088243272567
 30
0.0
 10
109.98639594184027
 20
203.34090440538193
 30
0.0
 10
109.98639594184027
 20
204.46331651475694
 30
0.0
 10
109.98639594184027
 20
204.46331651475694
 30
0.0
 10
109.98639594184027
 20
204.82419026692708
 30
0.0
 10
109.98639594184027
 20
204.82419026692708
 30
0.0
 10
109.98639594184027
 20
205.94694688585068
 30
0.0
 10
110.91037055121527
 20
206.85696885850692
 30
0.0
 10
112.05035264756944
 20
206.85696885850692
 30
0.0
 10
112.05035264756944
 20
206.85696885850692
 30
0.0
 10
116.22546386718749
 20
206.85696885850692
 30
0.0
 10
116.22546386718749
 20
206.85696885850692
 30
0.0
 10
117.36544596354166
 20
206.85696885850692
 30
0.0
 10
118.28907606336804
 20
205.94694688585068
 30
0.0
 10
118.28907606336804
 20
204.82419026692708
 30
0.0
 10
118.28907606336804
 20
204.82419026692708
 30
0.0
 10
118.28907606336804
 20
204.46331651475694
 30
0.0
 10
118.28907606336804
 20
204.46331651475694
 30
0.0
  0
SPLINE
  5
108
100
AcDbEntity
  8
LAYER_1
 62
     7
100
AcDbSpline
210
0.0
220
0.0
230
1.0
 70
     8
 71
     3
 72
    29
 73
    25
 74
     0
 42
0.00000001
 43
0.00000001
 40
0.0
 40
0.0
 40
0.0
 40
0.0
 40
1.0
 40
1.0
 40
1.0
 40
2.0
 40
2.0
 40
2.0
 40
3.0
 40
3.0
 40
3.0
 40
4.0
 40
4.0
 40
4.0
 40
5.0
 40
5.0
 40
5.0
 40
6.0
 40
6.0
 40
6.0
 40
7.0
 40
7.0
 40
7.0
 40
8.0
 40
8.0
 40
8.0
 40
8.0
 10
131.25365939670138
 20
204.46331651475694
 30
0.0
 10
131.25365939670138
 20
203.34090440538193
 30
0.0
 10
130.33002929687498
 20
202.43088243272567
 30
0.0
 10
129.19004720052081
 20
202.43088243272567
 30
0.0
 10
129.19004720052081
 20
202.43088243272567
 30
0.0
 10
125.01493598090276
 20
202.43088243272567
 30
0.0
 10
125.01493598090276
 20
202.43088243272567
 30
0.0
 10
123.8749538845486
 20
202.43088243272567
 30
0.0
 10
122.95097927517359
 20
203.34090440538193
 30
0.0
 10
122.95097927517359
 20
204.46331651475694
 30
0.0
 10
122.95097927517359
 20
204.46331651475694
 30
0.0
 10
122.95097927517359
 20
204.82419026692708
 30
0.0
 10
122.95097927517359
 20
204.82419026692708
 30
0.0
 10
122.95097927517359
 20
205.94694688585068
 30
0.0
 10
123.8749538845486
 20
206.85696885850692
 30
0.0
 10
125.01493598090276
 20
206.85696885850692
 30
0.0
 10
125.01493598090276
 20
206.85696885850692
 30
0.0
 10
129.19004720052081
 20
206.85696885850692
 30
0.0
 10
129.19004720052081
 20
206.85696885850692
 30
0.0
 10
130.33002929687498
 20
206.85696885850692
 30
0.0
 10
131.25365939670138
 20
205.94694688585068
 30
0.0
 10
131.25365939670138
 20
204.82419026692708
 30
0.0
 10
131.25365939670138
 20
204.82419026692708
 30
0.0
 10
131.25365939670138
 20
204.46331651475694
 30
0.0
 10
131.25365939670138
 20
204.46331651475694
 30
0.0
  0
SPLINE
  5
107
100
AcDbEntity
  8
LAYER_1
 62
     7
100
AcDbSpline
210
0.0
220
0.0
230
1.0
 70
     8
 71
     3
 72
    29
 73
    25
 74
     0
 42
0.00000001
 43
0.00000001
 40
0.0
 40
0.0
 40
0.0
 40
0.0
 40
1.0
 40
1.0
 40
1.0
 40
2.0
 40
2.0
 40
2.0
 40
3.0
 40
3.0
 40
3.0
 40
4.0
 40
4.0
 40
4.0
 40
5.0
 40
5.0
 40
5.0
 40
6.0
 40
6.0
 40
6.0
 40
7.0
 40
7.0
 40
7.0
 40
8.0
 40
8.0
 40
8.0
 40
8.0
 10
92.653259277343736
 20
195.40891655815972
 30
0.0
 10
92.653259277343736
 20
194.28633219401041
 30
0.0
 10
91.729456922743054
 20
193.37631022135415
 30
0.0
 10
90.589647081163193
 20
193.37631022135415
 30
0.0
 10
90.589647081163193
 20
193.37631022135415
 30
0.0
 10
86.41436360677082
 20
193.37631022135415
 30
0.0
 10
86.41436360677082
 20
193.37631022135415
 30
0.0
 10
85.274553765190959
 20
193.37631022135415
 30
0.0
 10
84.350751410590277
 20
194.28633219401041
 30
0.0
 10
84.350751410590277
 20
195.40891655815972
 30
0.0
 10
84.350751410590277
 20
195.40891655815972
 30
0.0
 10
84.350751410590277
 20
195.76961805555553
 30
0.0
 10
84.350751410590277
 20
195.76961805555553
 30
0.0
 10
84.350751410590277
 20
196.89237467447916
 30
0.0
 10
85.274553765190959
 20
197.8023966471354
 30
0.0
 10
86.41436360677082
 20
197.8023966471354
 30
0.0
 10
86.41436360677082
 20
197.8023966471354
 30
0.0
 10
90.589647081163193
 20
197.8023966471354
 30
0.0
 10
90.589647081163193
 20
197.8023966471354
 30
0.0
 10
91.729456922743054
 20
197.8023966471354
 30
0.0
 10
92.653259277343736
 20
196.89237467447916
 30
0.0
 10
92.653259277343736
 20
195.76961805555553
 30
0.0
 10
92.653259277343736
 20
195.76961805555553
 30
0.0
 10
92.653259277343736
 20
195.40891655815972
 30
0.0
 10
92.653259277343736
 20
195.40891655815972
 30
0.0
  0
SPLINE
  5
106
100
AcDbEntity
  8
LAYER_1
 62
     7
100
AcDbSpline
210
0.0
220
0.0
230
1.0
 70
     8
 71
     3
 72
    29
 73
    25
 74
     0
 42
0.00000001
 43
0.00000001
 40
0.0
 40
0.0
 40
0.0
 40
0.0
 40
1.0
 40
1.0
 40
1.0
 40
2.0
 40
2.0
 40
2.0
 40
3.0
 40
3.0
 40
3.0
 40
4.0
 40
4.0
 40
4.0
 40
5.0
 40
5.0
 40
5.0
 40
6.0
 40
6.0
 40
6.0
 40
7.0
 40
7.0
 40
7.0
 40
8.0
 40
8.0
 40
8.0
 40
8.0
 10
105.41268717447916
 20
195.40891655815972
 30
0.0
 10
105.41268717447916
 20
194.28633219401041
 30
0.0
 10
104.48888481987846
 20
193.37631022135415
 30
0.0
 10
103.3490749782986
 20
193.37631022135415
 30
0.0
 10
103.3490749782986
 20
193.37631022135415
 30
0.0
 10
99.173791503906244
 20
193.37631022135415
 30
0.0
 10
99.173791503906244
 20
193.37631022135415
 30
0.0
 10
98.033981662326383
 20
193.37631022135415
 30
0.0
 10
97.110179307725687
 20
194.28633219401041
 30
0.0
 10
97.110179307725687
 20
195.40891655815972
 30
0.0
 10
97.110179307725687
 20
195.40891655815972
 30
0.0
 10
97.110179307725687
 20
195.76961805555553
 30
0.0
 10
97.110179307725687
 20
195.76961805555553
 30
0.0
 10
97.110179307725687
 20
196.89237467447916
 30
0.0
 10
98.033981662326383
 20
197.8023966471354
 30
0.0
 10
99.173791503906244
 20
197.8023966471354
 30
0.0
 10
99.173791503906244
 20
197.8023966471354
 30
0.0
 10
103.3490749782986
 20
197.8023966471354
 30
0.0
 10
103.3490749782986
 20
197.8023966471354
 30
0.0
 10
104.48888481987846
 20
197.8023966471354
 30
0.0
 10
105.41268717447916
 20
196.89237467447916
 30
0.0
 10
105.41268717447916
 20
195.76961805555553
 30
0.0
 10
105.41268717447916
 20
195.76961805555553
 30
0.0
 10
105.41268717447916
 20
195.40891655815972
 30
0.0
 10
105.41268717447916
 20
195.40891655815972
 30
0.0
  0
SPLINE
  5
105
100
AcDbEntity
  8
LAYER_1
 62
     7
100
AcDbSpline
210
0.0
220
0.0
230
1.0
 70
     8
 71
     3
 72
    29
 73
    25
 74
     0
 42
0.00000001
 43
0.00000001
 40
0.0
 40
0.0
 40
0.0
 40
0.0
 40
1.0
 40
1.0
 40
1.0
 40
2.0
 40
2.0
 40
2.0
 40
3.0
 40
3.0
 40
3.0
 40
4.0
 40
4.0
 40
4.0
 40
5.0
 40
5.0
 40
5.0
 40
6.0
 40
6.0
 40
6.0
 40
7.0
 40
7.0
 40
7.0
 40
8.0
 40
8.0
 40
8.0
 40
8.0
 10
118.28907606336804
 20
195.40891655815972
 30
0.0
 10
118.28907606336804
 20
194.28633219401041
 30
0.0
 10
117.36544596354166
 20
193.37631022135415
 30
0.0
 10
116.22546386718749
 20
193.37631022135415
 30
0.0
 10
116.22546386718749
 20
193.37631022135415
 30
0.0
 10
112.05035264756944
 20
193.37631022135415
 30
0.0
 10
112.05035264756944
 20
193.37631022135415
 30
0.0
 10
110.91037055121527
 20
193.37631022135415
 30
0.0
 10
109.98639594184027
 20
194.28633219401041
 30
0.0
 10
109.98639594184027
 20
195.40891655815972
 30
0.0
 10
109.98639594184027
 20
195.40891655815972
 30
0.0
 10
109.98639594184027
 20
195.76961805555553
 30
0.0
 10
109.98639594184027
 20
195.76961805555553
 30
0.0
 10
109.98639594184027
 20
196.89237467447916
 30
0.0
 10
110.91037055121527
 20
197.8023966471354
 30
0.0
 10
112.05035264756944
 20
197.8023966471354
 30
0.0
 10
112.05035264756944
 20
197.8023966471354
 30
0.0
 10
116.22546386718749
 20
197.8023966471354
 30
0.0
 10
116.22546386718749
 20
197.8023966471354
 30
0.0
 10
117.36544596354166
 20
197.8023966471354
 30
0.0
 10
118.28907606336804
 20
196.89237467447916
 30
0.0
 10
118.28907606336804
 20
195.76961805555553
 30
0.0
 10
118.28907606336804
 20
195.76961805555553
 30
0.0
 10
118.28907606336804
 20
195.40891655815972
 30
0.0
 10
118.28907606336804
 20
195.40891655815972
 30
0.0
  0
SPLINE
  5
104
100
AcDbEntity
  8
LAYER_1
 62
     7
100
AcDbSpline
210
0.0
220
0.0
230
1.0
 70
     8
 71
     3
 72
    29
 73
    25
 74
     0
 42
0.00000001
 43
0.00000001
 40
0.0
 40
0.0
 40
0.0
 40
0.0
 40
1.0
 40
1.0
 40
1.0
 40
2.0
 40
2.0
 40
2.0
 40
3.0
 40
3.0
 40
3.0
 40
4.0
 40
4.0
 40
4.0
 40
5.0
 40
5.0
 40
5.0
 40
6.0
 40
6.0
 40
6.0
 40
7.0
 40
7.0
 40
7.0
 40
8.0
 40
8.0
 40
8.0
 40
8.0
 10
131.25365939670138
 20
195.40891655815972
 30
0.0
 10
131.25365939670138
 20
194.28633219401041
 30
0.0
 10
130.33002929687498
 20
193.37631022135415
 30
0.0
 10
129.19004720052081
 20
193.37631022135415
 30
0.0
 10
129.19004720052081
 20
193.37631022135415
 30
0.0
 10
125.01493598090276
 20
193.37631022135415
 30
0.0
 10
125.01493598090276
 20
193.37631022135415
 30
0.0
 10
123.8749538845486
 20
193.37631022135415
 30
0.0
 10
122.95097927517359
 20
194.28633219401041
 30
0.0
 10
122.95097927517359
 20
195.40891655815972
 30
0.0
 10
122.95097927517359
 20
195.40891655815972
 30
0.0
 10
122.95097927517359
 20
195.76961805555553
 30
0.0
 10
122.95097927517359
 20
195.76961805555553
 30
0.0
 10
122.95097927517359
 20
196.89237467447916
 30
0.0
 10
123.8749538845486
 20
197.8023966471354
 30
0.0
 10
125.01493598090276
 20
197.8023966471354
 30
0.0
 10
125.01493598090276
 20
197.8023966471354
 30
0.0
 10
129.19004720052081
 20
197.8023966471354
 30
0.0
 10
129.19004720052081
 20
197.8023966471354
 30
0.0
 10
130.33002929687498
 20
197.8023966471354
 30
0.0
 10
131.25365939670138
 20
196.89237467447916
 30
0.0
 10
131.25365939670138
 20
195.76961805555553
 30
0.0
 10
131.25365939670138
 20
195.76961805555553
 30
0.0
 10
131.25365939670138
 20
195.40891655815972
 30
0.0
 10
131.25365939670138
 20
195.40891655815972
 30
0.0
  0
SPLINE
  5
103
100
AcDbEntity
  8
LAYER_1
 62
     7
100
AcDbSpline
210
0.0
220
0.0
230
1.0
 70
     8
 71
     3
 72
    29
 73
    25
 74
     0
 42
0.00000001
 43
0.00000001
 40
0.0
 40
0.0
 40
0.0
 40
0.0
 40
1.0
 40
1.0
 40
1.0
 40
2.0
 40
2.0
 40
2.0
 40
3.0
 40
3.0
 40
3.0
 40
4.0
 40
4.0
 40
4.0
 40
5.0
 40
5.0
 40
5.0
 40
6.0
 40
6.0
 40
6.0
 40
7.0
 40
7.0
 40
7.0
 40
8.0
 40
8.0
 40
8.0
 40
8.0
 10
92.653259277343736
 20
186.47164984809027
 30
0.0
 10
92.653259277343736
 20
185.34923773871526
 30
0.0
 10
91.729456922743054
 20
184.43921576605902
 30
0.0
 10
90.589647081163193
 20
184.43921576605902
 30
0.0
 10
90.589647081163193
 20
184.43921576605902
 30
0.0
 10
86.41436360677082
 20
184.43921576605902
 30
0.0
 10
86.41436360677082
 20
184.43921576605902
 30
0.0
 10
85.274553765190959
 20
184.43921576605902
 30
0.0
 10
84.350751410590277
 20
185.34923773871526
 30
0.0
 10
84.350751410590277
 20
186.47164984809027
 30
0.0
 10
84.350751410590277
 20
186.47164984809027
 30
0.0
 10
84.350751410590277
 20
186.8325236002604
 30
0.0
 10
84.350751410590277
 20
186.8325236002604
 30
0.0
 10
84.350751410590277
 20
187.955280219184
 30
0.0
 10
85.274553765190959
 20
188.86530219184027
 30
0.0
 10
86.41436360677082
 20
188.86530219184027
 30
0.0
 10
86.41436360677082
 20
188.86530219184027
 30
0.0
 10
90.589647081163193
 20
188.86530219184027
 30
0.0
 10
90.589647081163193
 20
188.86530219184027
 30
0.0
 10
91.729456922743054
 20
188.86530219184027
 30
0.0
 10
92.653259277343736
 20
187.955280219184
 30
0.0
 10
92.653259277343736
 20
186.8325236002604
 30
0.0
 10
92.653259277343736
 20
186.8325236002604
 30
0.0
 10
92.653259277343736
 20
186.47164984809027
 30
0.0
 10
92.653259277343736
 20
186.47164984809027
 30
0.0
  0
SPLINE
  5
102
100
AcDbEntity
  8
LAYER_1
 62
     7
100
AcDbSpline
210
0.0
220
0.0
230
1.0
 70
     8
 71
     3
 72
    29
 73
    25
 74
     0
 42
0.00000001
 43
0.00000001
 40
0.0
 40
0.0
 40
0.0
 40
0.0
 40
1.0
 40
1.0
 40
1.0
 40
2.0
 40
2.0
 40
2.0
 40
3.0
 40
3.0
 40
3.0
 40
4.0
 40
4.0
 40
4.0
 40
5.0
 40
5.0
 40
5.0
 40
6.0
 40
6.0
 40
6.0
 40
7.0
 40
7.0
 40
7.0
 40
8.0
 40
8.0
 40
8.0
 40
8.0
 10
105.41268717447916
 20
186.47164984809027
 30
0.0
 10
105.41268717447916
 20
185.34923773871526
 30
0.0
 10
104.48888481987846
 20
184.43921576605902
 30
0.0
 10
103.3490749782986
 20
184.43921576605902
 30
0.0
 10
103.3490749782986
 20
184.43921576605902
 30
0.0
 10
99.173791503906244
 20
184.43921576605902
 30
0.0
 10
99.173791503906244
 20
184.43921576605902
 30
0.0
 10
98.033981662326383
 20
184.43921576605902
 30
0.0
 10
97.110179307725687
 20
185.34923773871526
 30
0.0
 10
97.110179307725687
 20
186.47164984809027
 30
0.0
 10
97.110179307725687
 20
186.47164984809027
 30
0.0
 10
97.110179307725687
 20
186.8325236002604
 30
0.0
 10
97.110179307725687
 20
186.8325236002604
 30
0.0
 10
97.110179307725687
 20
187.955280219184
 30
0.0
 10
98.033981662326383
 20
188.86530219184027
 30
0.0
 10
99.173791503906244
 20
188.86530219184027
 30
0.0
 10
99.173791503906244
 20
188.86530219184027
 30
0.0
 10
103.3490749782986
 20
188.86530219184027
 30
0.0
 10
103.3490749782986
 20
188.86530219184027
 30
0.0
 10
104.48888481987846
 20
188.86530219184027
 30
0.0
 10
105.41268717447916
 20
187.955280219184
 30
0.0
 10
105.41268717447916
 20
186.8325236002604
 30
0.0
 10
105.41268717447916
 20
186.8325236002604
 30
0.0
 10
105.41268717447916
 20
186.47164984809027
 30
0.0
 10
105.41268717447916
 20
186.47164984809027
 30
0.0
  0
SPLINE
  5
101
100
AcDbEntity
  8
LAYER_1
 62
     7
100
AcDbSpline
210
0.0
220
0.0
230
1.0
 70
     8
 71
     3
 72
    29
 73
    25
 74
     0
 42
0.00000001
 43
0.00000001
 40
0.0
 40
0.0
 40
0.0
 40
0.0
 40
1.0
 40
1.0
 40
1.0
 40
2.0
 40
2.0
 40
2.0
 40
3.0
 40
3.0
 40
3.0
 40
4.0
 40
4.0
 40
4.0
 40
5.0
 40
5.0
 40
5.0
 40
6.0
 40
6.0
 40
6.0
 40
7.0
 40
7.0
 40
7.0
 40
8.0
 40
8.0
 40
8.0
 40
8.0
 10
118.28907606336804
 20
186.47164984809027
 30
0.0
 10
118.28907606336804
 20
185.34923773871526
 30
0.0
 10
117.36544596354166
 20
184.43921576605902
 30
0.0
 10
116.22546386718749
 20
184.43921576605902
 30
0.0
 10
116.22546386718749
 20
184.43921576605902
 30
0.0
 10
112.05035264756944
 20
184.43921576605902
 30
0.0
 10
112.05035264756944
 20
184.43921576605902
 30
0.0
 10
110.91037055121527
 20
184.43921576605902
 30
0.0
 10
109.98639594184027
 20
185.34923773871526
 30
0.0
 10
109.98639594184027
 20
186.47164984809027
 30
0.0
 10
109.98639594184027
 20
186.47164984809027
 30
0.0
 10
109.98639594184027
 20
186.8325236002604
 30
0.0
 10
109.98639594184027
 20
186.8325236002604
 30
0.0
 10
109.98639594184027
 20
187.955280219184
 30
0.0
 10
110.91037055121527
 20
188.86530219184027
 30
0.0
 10
112.05035264756944
 20
188.86530219184027
 30
0.0
 10
112.05035264756944
 20
188.86530219184027
 30
0.0
 10
116.22546386718749
 20
188.86530219184027
 30
0.0
 10
116.22546386718749
 20
188.86530219184027
 30
0.0
 10
117.36544596354166
 20
188.86530219184027
 30
0.0
 10
118.28907606336804
 20
187.955280219184
 30
0.0
 10
118.28907606336804
 20
186.8325236002604
 30
0.0
 10
118.28907606336804
 20
186.8325236002604
 30
0.0
 10
118.28907606336804
 20
186.47164984809027
 30
0.0
 10
118.28907606336804
 20
186.47164984809027
 30
0.0
  0
SPLINE
  5
100
100
AcDbEntity
  8
LAYER_1
 62
     7
100
AcDbSpline
210
0.0
220
0.0
230
1.0
 70
     8
 71
     3
 72
    29
 73
    25
 74
     0
 42
0.00000001
 43
0.00000001
 40
0.0
 40
0.0
 40
0.0
 40
0.0
 40
1.0
 40
1.0
 40
1.0
 40
2.0
 40
2.0
 40
2.0
 40
3.0
 40
3.0
 40
3.0
 40
4.0
 40
4.0
 40
4.0
 40
5.0
 40
5.0
 40
5.0
 40
6.0
 40
6.0
 40
6.0
 40
7.0
 40
7.0
 40
7.0
 40
8.0
 40
8.0
 40
8.0
 40
8.0
 10
131.25365939670138
 20
186.47164984809027
 30
0.0
 10
131.25365939670138
 20
185.34923773871526
 30
0.0
 10
130.33002929687498
 20
184.43921576605902
 30
0.0
 10
129.19004720052081
 20
184.43921576605902
 30
0.0
 10
129.19004720052081
 20
184.43921576605902
 30
0.0
 10
125.01493598090276
 20
184.43921576605902
 30
0.0
 10
125.01493598090276
 20
184.43921576605902
 30
0.0
 10
123.8749538845486
 20
184.43921576605902
 30
0.0
 10
122.95097927517359
 20
185.34923773871526
 30
0.0
 10
122.95097927517359
 20
186.47164984809027
 30
0.0
 10
122.95097927517359
 20
186.47164984809027
 30
0.0
 10
122.95097927517359
 20
186.8325236002604
 30
0.0
 10
122.95097927517359
 20
186.8325236002604
 30
0.0
 10
122.95097927517359
 20
187.955280219184
 30
0.0
 10
123.8749538845486
 20
188.86530219184027
 30
0.0
 10
125.01493598090276
 20
188.86530219184027
 30
0.0
 10
125.01493598090276
 20
188.86530219184027
 30
0.0
 10
129.19004720052081
 20
188.86530219184027
 30
0.0
 10
129.19004720052081
 20
188.86530219184027
 30
0.0
 10
130.33002929687498
 20
188.86530219184027
 30
0.0
 10
131.25365939670138
 20
187.955280219184
 30
0.0
 10
131.25365939670138
 20
186.8325236002604
 30
0.0
 10
131.25365939670138
 20
186.8325236002604
 30
0.0
 10
131.25365939670138
 20
186.47164984809027
 30
0.0
 10
131.25365939670138
 20
186.47164984809027
 30
0.0
  0
SPLINE
  5
FF
100
AcDbEntity
  8
LAYER_1
 62
     7
100
AcDbSpline
210
0.0
220
0.0
230
1.0
 70
     8
 71
     3
 72
    29
 73
    25
 74
     0
 42
0.00000001
 43
0.00000001
 40
0.0
 40
0.0
 40
0.0
 40
0.0
 40
1.0
 40
1.0
 40
1.0
 40
2.0
 40
2.0
 40
2.0
 40
3.0
 40
3.0
 40
3.0
 40
4.0
 40
4.0
 40
4.0
 40
5.0
 40
5.0
 40
5.0
 40
6.0
 40
6.0
 40
6.0
 40
7.0
 40
7.0
 40
7.0
 40
8.0
 40
8.0
 40
8.0
 40
8.0
 10
92.653259277343736
 20
177.41724989149304
 30
0.0
 10
92.653259277343736
 20
176.29466552734374
 30
0.0
 10
91.729456922743054
 20
175.38464355468747
 30
0.0
 10
90.589647081163193
 20
175.38464355468747
 30
0.0
 10
90.589647081163193
 20
175.38464355468747
 30
0.0
 10
86.41436360677082
 20
175.38464355468747
 30
0.0
 10
86.41436360677082
 20
175.38464355468747
 30
0.0
 10
85.274553765190959
 20
175.38464355468747
 30
0.0
 10
84.350751410590277
 20
176.29466552734374
 30
0.0
 10
84.350751410590277
 20
177.41724989149304
 30
0.0
 10
84.350751410590277
 20
177.41724989149304
 30
0.0
 10
84.350751410590277
 20
177.77795138888888
 30
0.0
 10
84.350751410590277
 20
177.77795138888888
 30
0.0
 10
84.350751410590277
 20
178.90070800781248
 30
0.0
 10
85.274553765190959
 20
179.81072998046872
 30
0.0
 10
86.41436360677082
 20
179.81072998046872
 30
0.0
 10
86.41436360677082
 20
179.81072998046872
 30
0.0
 10
90.589647081163193
 20
179.81072998046872
 30
0.0
 10
90.589647081163193
 20
179.81072998046872
 30
0.0
 10
91.729456922743054
 20
179.81072998046872
 30
0.0
 10
92.653259277343736
 20
178.90070800781248
 30
0.0
 10
92.653259277343736
 20
177.77795138888888
 30
0.0
 10
92.653259277343736
 20
177.77795138888888
 30
0.0
 10
92.653259277343736
 20
177.41724989149304
 30
0.0
 10
92.653259277343736
 20
177.41724989149304
 30
0.0
  0
SPLINE
  5
FE
100
AcDbEntity
  8
LAYER_1
 62
     7
100
AcDbSpline
210
0.0
220
0.0
230
1.0
 70
     8
 71
     3
 72
    29
 73
    25
 74
     0
 42
0.00000001
 43
0.00000001
 40
0.0
 40
0.0
 40
0.0
 40
0.0
 40
1.0
 40
1.0
 40
1.0
 40
2.0
 40
2.0
 40
2.0
 40
3.0
 40
3.0
 40
3.0
 40
4.0
 40
4.0
 40
4.0
 40
5.0
 40
5.0
 40
5.0
 40
6.0
 40
6.0
 40
6.0
 40
7.0
 40
7.0
 40
7.0
 40
8.0
 40
8.0
 40
8.0
 40
8.0
 10
105.41268717447916
 20
177.41724989149304
 30
0.0
 10
105.41268717447916
 20
176.29466552734374
 30
0.0
 10
104.48888481987846
 20
175.38464355468747
 30
0.0
 10
103.3490749782986
 20
175.38464355468747
 30
0.0
 10
103.3490749782986
 20
175.38464355468747
 30
0.0
 10
99.173791503906244
 20
175.38464355468747
 30
0.0
 10
99.173791503906244
 20
175.38464355468747
 30
0.0
 10
98.033981662326383
 20
175.38464355468747
 30
0.0
 10
97.110179307725687
 20
176.29466552734374
 30
0.0
 10
97.110179307725687
 20
177.41724989149304
 30
0.0
 10
97.110179307725687
 20
177.41724989149304
 30
0.0
 10
97.110179307725687
 20
177.77795138888888
 30
0.0
 10
97.110179307725687
 20
177.77795138888888
 30
0.0
 10
97.110179307725687
 20
178.90070800781248
 30
0.0
 10
98.033981662326383
 20
179.81072998046872
 30
0.0
 10
99.173791503906244
 20
179.81072998046872
 30
0.0
 10
99.173791503906244
 20
179.81072998046872
 30
0.0
 10
103.3490749782986
 20
179.81072998046872
 30
0.0
 10
103.3490749782986
 20
179.81072998046872
 30
0.0
 10
104.48888481987846
 20
179.81072998046872
 30
0.0
 10
105.41268717447916
 20
178.90070800781248
 30
0.0
 10
105.41268717447916
 20
177.77795138888888
 30
0.0
 10
105.41268717447916
 20
177.77795138888888
 30
0.0
 10
105.41268717447916
 20
177.41724989149304
 30
0.0
 10
105.41268717447916
 20
177.41724989149304
 30
0.0
  0
SPLINE
  5
FD
100
AcDbEntity
  8
LAYER_1
 62
     7
100
AcDbSpline
210
0.0
220
0.0
230
1.0
 70
     8
 71
     3
 72
    29
 73
    25
 74
     0
 42
0.00000001
 43
0.00000001
 40
0.0
 40
0.0
 40
0.0
 40
0.0
 40
1.0
 40
1.0
 40
1.0
 40
2.0
 40
2.0
 40
2.0
 40
3.0
 40
3.0
 40
3.0
 40
4.0
 40
4.0
 40
4.0
 40
5.0
 40
5.0
 40
5.0
 40
6.0
 40
6.0
 40
6.0
 40
7.0
 40
7.0
 40
7.0
 40
8.0
 40
8.0
 40
8.0
 40
8.0
 10
118.28907606336804
 20
177.41724989149304
 30
0.0
 10
118.28907606336804
 20
176.29466552734374
 30
0.0
 10
117.36544596354166
 20
175.38464355468747
 30
0.0
 10
116.22546386718749
 20
175.38464355468747
 30
0.0
 10
116.22546386718749
 20
175.38464355468747
 30
0.0
 10
112.05035264756944
 20
175.38464355468747
 30
0.0
 10
112.05035264756944
 20
175.38464355468747
 30
0.0
 10
110.91037055121527
 20
175.38464355468747
 30
0.0
 10
109.98639594184027
 20
176.29466552734374
 30
0.0
 10
109.98639594184027
 20
177.41724989149304
 30
0.0
 10
109.98639594184027
 20
177.41724989149304
 30
0.0
 10
109.98639594184027
 20
177.77795138888888
 30
0.0
 10
109.98639594184027
 20
177.77795138888888
 30
0.0
 10
109.98639594184027
 20
178.90070800781248
 30
0.0
 10
110.91037055121527
 20
179.81072998046872
 30
0.0
 10
112.05035264756944
 20
179.81072998046872
 30
0.0
 10
112.05035264756944
 20
179.81072998046872
 30
0.0
 10
116.22546386718749
 20
179.81072998046872
 30
0.0
 10
116.22546386718749
 20
179.81072998046872
 30
0.0
 10
117.36544596354166
 20
179.81072998046872
 30
0.0
 10
118.28907606336804
 20
178.90070800781248
 30
0.0
 10
118.28907606336804
 20
177.77795138888888
 30
0.0
 10
118.28907606336804
 20
177.77795138888888
 30
0.0
 10
118.28907606336804
 20
177.41724989149304
 30
0.0
 10
118.28907606336804
 20
177.41724989149304
 30
0.0
  0
SPLINE
  5
FC
100
AcDbEntity
  8
LAYER_1
 62
     7
100
AcDbSpline
210
0.0
220
0.0
230
1.0
 70
     8
 71
     3
 72
    29
 73
    25
 74
     0
 42
0.00000001
 43
0.00000001
 40
0.0
 40
0.0
 40
0.0
 40
0.0
 40
1.0
 40
1.0
 40
1.0
 40
2.0
 40
2.0
 40
2.0
 40
3.0
 40
3.0
 40
3.0
 40
4.0
 40
4.0
 40
4.0
 40
5.0
 40
5.0
 40
5.0
 40
6.0
 40
6.0
 40
6.0
 40
7.0
 40
7.0
 40
7.0
 40
8.0
 40
8.0
 40
8.0
 40
8.0
 10
131.25365939670138
 20
177.41724989149304
 30
0.0
 10
131.25365939670138
 20
176.29466552734374
 30
0.0
 10
130.33002929687498
 20
175.38464355468747
 30
0.0
 10
129.19004720052081
 20
175.38464355468747
 30
0.0
 10
129.19004720052081
 20
175.38464355468747
 30
0.0
 10
125.01493598090276
 20
175.38464355468747
 30
0.0
 10
125.01493598090276
 20
175.38464355468747
 30
0.0
 10
123.8749538845486
 20
175.38464355468747
 30
0.0
 10
122.95097927517359
 20
176.29466552734374
 30
0.0
 10
122.95097927517359
 20
177.41724989149304
 30
0.0
 10
122.95097927517359
 20
177.41724989149304
 30
0.0
 10
122.95097927517359
 20
177.77795138888888
 30
0.0
 10
122.95097927517359
 20
177.77795138888888
 30
0.0
 10
122.95097927517359
 20
178.90070800781248
 30
0.0
 10
123.8749538845486
 20
179.81072998046872
 30
0.0
 10
125.01493598090276
 20
179.81072998046872
 30
0.0
 10
125.01493598090276
 20
179.81072998046872
 30
0.0
 10
129.19004720052081
 20
179.81072998046872
 30
0.0
 10
129.19004720052081
 20
179.81072998046872
 30
0.0
 10
130.33002929687498
 20
179.81072998046872
 30
0.0
 10
131.25365939670138
 20
178.90070800781248
 30
0.0
 10
131.25365939670138
 20
177.77795138888888
 30
0.0
 10
131.25365939670138
 20
177.77795138888888
 30
0.0
 10
131.25365939670138
 20
177.41724989149304
 30
0.0
 10
131.25365939670138
 20
177.41724989149304
 30
0.0
  0
SPLINE
  5
FB
100
AcDbEntity
  8
LAYER_1
 62
     7
100
AcDbSpline
210
0.0
220
0.0
230
1.0
 70
     8
 71
     3
 72
    29
 73
    25
 74
     0
 42
0.00000001
 43
0.00000001
 40
0.0
 40
0.0
 40
0.0
 40
0.0
 40
1.0
 40
1.0
 40
1.0
 40
2.0
 40
2.0
 40
2.0
 40
3.0
 40
3.0
 40
3.0
 40
4.0
 40
4.0
 40
4.0
 40
5.0
 40
5.0
 40
5.0
 40
6.0
 40
6.0
 40
6.0
 40
7.0
 40
7.0
 40
7.0
 40
8.0
 40
8.0
 40
8.0
 40
8.0
 10
92.653259277343736
 20
168.36267768012152
 30
0.0
 10
92.653259277343736
 20
167.24009331597222
 30
0.0
 10
91.729456922743054
 20
166.33007134331595
 30
0.0
 10
90.589647081163193
 20
166.33007134331595
 30
0.0
 10
90.589647081163193
 20
166.33007134331595
 30
0.0
 10
86.41436360677082
 20
166.33007134331595
 30
0.0
 10
86.41436360677082
 20
166.33007134331595
 30
0.0
 10
85.274553765190959
 20
166.33007134331595
 30
0.0
 10
84.350751410590277
 20
167.24009331597222
 30
0.0
 10
84.350751410590277
 20
168.36267768012152
 30
0.0
 10
84.350751410590277
 20
168.36267768012152
 30
0.0
 10
84.350751410590277
 20
168.72337917751736
 30
0.0
 10
84.350751410590277
 20
168.72337917751736
 30
0.0
 10
84.350751410590277
 20
169.84613579644096
 30
0.0
 10
85.274553765190959
 20
170.7561577690972
 30
0.0
 10
86.41436360677082
 20
170.7561577690972
 30
0.0
 10
86.41436360677082
 20
170.7561577690972
 30
0.0
 10
90.589647081163193
 20
170.7561577690972
 30
0.0
 10
90.589647081163193
 20
170.7561577690972
 30
0.0
 10
91.729456922743054
 20
170.7561577690972
 30
0.0
 10
92.653259277343736
 20
169.84613579644096
 30
0.0
 10
92.653259277343736
 20
168.72337917751736
 30
0.0
 10
92.653259277343736
 20
168.72337917751736
 30
0.0
 10
92.653259277343736
 20
168.36267768012152
 30
0.0
 10
92.653259277343736
 20
168.36267768012152
 30
0.0
  0
SPLINE
  5
FA
100
AcDbEntity
  8
LAYER_1
 62
     7
100
AcDbSpline
210
0.0
220
0.0
230
1.0
 70
     8
 71
     3
 72
    29
 73
    25
 74
     0
 42
0.00000001
 43
0.00000001
 40
0.0
 40
0.0
 40
0.0
 40
0.0
 40
1.0
 40
1.0
 40
1.0
 40
2.0
 40
2.0
 40
2.0
 40
3.0
 40
3.0
 40
3.0
 40
4.0
 40
4.0
 40
4.0
 40
5.0
 40
5.0
 40
5.0
 40
6.0
 40
6.0
 40
6.0
 40
7.0
 40
7.0
 40
7.0
 40
8.0
 40
8.0
 40
8.0
 40
8.0
 10
105.41268717447916
 20
168.36267768012152
 30
0.0
 10
105.41268717447916
 20
167.24009331597222
 30
0.0
 10
104.48888481987846
 20
166.33007134331595
 30
0.0
 10
103.3490749782986
 20
166.33007134331595
 30
0.0
 10
103.3490749782986
 20
166.33007134331595
 30
0.0
 10
99.173791503906244
 20
166.33007134331595
 30
0.0
 10
99.173791503906244
 20
166.33007134331595
 30
0.0
 10
98.033981662326383
 20
166.33007134331595
 30
0.0
 10
97.110179307725687
 20
167.24009331597222
 30
0.0
 10
97.110179307725687
 20
168.36267768012152
 30
0.0
 10
97.110179307725687
 20
168.36267768012152
 30
0.0
 10
97.110179307725687
 20
168.72337917751736
 30
0.0
 10
97.110179307725687
 20
168.72337917751736
 30
0.0
 10
97.110179307725687
 20
169.84613579644096
 30
0.0
 10
98.033981662326383
 20
170.7561577690972
 30
0.0
 10
99.173791503906244
 20
170.7561577690972
 30
0.0
 10
99.173791503906244
 20
170.7561577690972
 30
0.0
 10
103.3490749782986
 20
170.7561577690972
 30
0.0
 10
103.3490749782986
 20
170.7561577690972
 30
0.0
 10
104.48888481987846
 20
170.7561577690972
 30
0.0
 10
105.41268717447916
 20
169.84613579644096
 30
0.0
 10
105.41268717447916
 20
168.72337917751736
 30
0.0
 10
105.41268717447916
 20
168.72337917751736
 30
0.0
 10
105.41268717447916
 20
168.36267768012152
 30
0.0
 10
105.41268717447916
 20
168.36267768012152
 30
0.0
  0
SPLINE
  5
F9
100
AcDbEntity
  8
LAYER_1
 62
     7
100
AcDbSpline
210
0.0
220
0.0
230
1.0
 70
     8
 71
     3
 72
    29
 73
    25
 74
     0
 42
0.00000001
 43
0.00000001
 40
0.0
 40
0.0
 40
0.0
 40
0.0
 40
1.0
 40
1.0
 40
1.0
 40
2.0
 40
2.0
 40
2.0
 40
3.0
 40
3.0
 40
3.0
 40
4.0
 40
4.0
 40
4.0
 40
5.0
 40
5.0
 40
5.0
 40
6.0
 40
6.0
 40
6.0
 40
7.0
 40
7.0
 40
7.0
 40
8.0
 40
8.0
 40
8.0
 40
8.0
 10
118.28907606336804
 20
168.36267768012152
 30
0.0
 10
118.28907606336804
 20
167.24009331597222
 30
0.0
 10
117.36544596354166
 20
166.33007134331595
 30
0.0
 10
116.22546386718749
 20
166.33007134331595
 30
0.0
 10
116.22546386718749
 20
166.33007134331595
 30
0.0
 10
112.05035264756944
 20
166.33007134331595
 30
0.0
 10
112.05035264756944
 20
166.33007134331595
 30
0.0
 10
110.91037055121527
 20
166.33007134331595
 30
0.0
 10
109.98639594184027
 20
167.24009331597222
 30
0.0
 10
109.98639594184027
 20
168.36267768012152
 30
0.0
 10
109.98639594184027
 20
168.36267768012152
 30
0.0
 10
109.98639594184027
 20
168.72337917751736
 30
0.0
 10
109.98639594184027
 20
168.72337917751736
 30
0.0
 10
109.98639594184027
 20
169.84613579644096
 30
0.0
 10
110.91037055121527
 20
170.7561577690972
 30
0.0
 10
112.05035264756944
 20
170.7561577690972
 30
0.0
 10
112.05035264756944
 20
170.7561577690972
 30
0.0
 10
116.22546386718749
 20
170.7561577690972
 30
0.0
 10
116.22546386718749
 20
170.7561577690972
 30
0.0
 10
117.36544596354166
 20
170.7561577690972
 30
0.0
 10
118.28907606336804
 20
169.84613579644096
 30
0.0
 10
118.28907606336804
 20
168.72337917751736
 30
0.0
 10
118.28907606336804
 20
168.72337917751736
 30
0.0
 10
118.28907606336804
 20
168.36267768012152
 30
0.0
 10
118.28907606336804
 20
168.36267768012152
 30
0.0
  0
SPLINE
  5
F8
100
AcDbEntity
  8
LAYER_1
 62
     7
100
AcDbSpline
210
0.0
220
0.0
230
1.0
 70
     8
 71
     3
 72
    29
 73
    25
 74
     0
 42
0.00000001
 43
0.00000001
 40
0.0
 40
0.0
 40
0.0
 40
0.0
 40
1.0
 40
1.0
 40
1.0
 40
2.0
 40
2.0
 40
2.0
 40
3.0
 40
3.0
 40
3.0
 40
4.0
 40
4.0
 40
4.0
 40
5.0
 40
5.0
 40
5.0
 40
6.0
 40
6.0
 40
6.0
 40
7.0
 40
7.0
 40
7.0
 40
8.0
 40
8.0
 40
8.0
 40
8.0
 10
131.25365939670138
 20
168.36267768012152
 30
0.0
 10
131.25365939670138
 20
167.24009331597222
 30
0.0
 10
130.33002929687498
 20
166.33007134331595
 30
0.0
 10
129.19004720052081
 20
166.33007134331595
 30
0.0
 10
129.19004720052081
 20
166.33007134331595
 30
0.0
 10
125.01493598090276
 20
166.33007134331595
 30
0.0
 10
125.01493598090276
 20
166.33007134331595
 30
0.0
 10
123.8749538845486
 20
166.33007134331595
 30
0.0
 10
122.95097927517359
 20
167.24009331597222
 30
0.0
 10
122.95097927517359
 20
168.36267768012152
 30
0.0
 10
122.95097927517359
 20
168.36267768012152
 30
0.0
 10
122.95097927517359
 20
168.72337917751736
 30
0.0
 10
122.95097927517359
 20
168.72337917751736
 30
0.0
 10
122.95097927517359
 20
169.84613579644096
 30
0.0
 10
123.8749538845486
 20
170.7561577690972
 30
0.0
 10
125.01493598090276
 20
170.7561577690972
 30
0.0
 10
125.01493598090276
 20
170.7561577690972
 30
0.0
 10
129.19004720052081
 20
170.7561577690972
 30
0.0
 10
129.19004720052081
 20
170.7561577690972
 30
0.0
 10
130.33002929687498
 20
170.7561577690972
 30
0.0
 10
131.25365939670138
 20
169.84613579644096
 30
0.0
 10
131.25365939670138
 20
168.72337917751736
 30
0.0
 10
131.25365939670138
 20
168.72337917751736
 30
0.0
 10
131.25365939670138
 20
168.36267768012152
 30
0.0
 10
131.25365939670138
 20
168.36267768012152
 30
0.0
  0
POLYLINE
  5
F2
100
AcDbEntity
  8
LAYER_1
 62
     7
100
AcDb2dPolyline
 66
     1
 10
0.0
 20
0.0
 30
0.0
 70
     1
  0
VERTEX
  5
F3
100
AcDbEntity
  8
LAYER_1
 62
     7
100
AcDbVertex
100
AcDb2dVertex
 10
92.744899
 20
157.215554
 30
0.0
  0
VERTEX
  5
F4
100
AcDbEntity
  8
LAYER_1
 62
     7
100
AcDbVertex
100
AcDb2dVertex
 10
84.39571
 20
157.215554
 30
0.0
  0
VERTEX
  5
F5
100
AcDbEntity
  8
LAYER_1
 62
     7
100
AcDbVertex
100
AcDb2dVertex
 10
84.39571
 20
161.919316
 30
0.0
  0
VERTEX
  5
F6
100
AcDbEntity
  8
LAYER_1
 62
     7
100
AcDbVertex
100
AcDb2dVertex
 10
92.744899
 20
161.919316
 30
0.0
  0
SEQEND
  5
F7
100
AcDbEntity
  8
LAYER_1
 62
     7
  0
POLYLINE
  5
EC
100
AcDbEntity
  8
LAYER_1
 62
     7
100
AcDb2dPolyline
 66
     1
 10
0.0
 20
0.0
 30
0.0
 70
     1
  0
VERTEX
  5
ED
100
AcDbEntity
  8
LAYER_1
 62
     7
100
AcDbVertex
100
AcDb2dVertex
 10
105.444899
 20
157.215554
 30
0.0
  0
VERTEX
  5
EE
100
AcDbEntity
  8
LAYER_1
 62
     7
100
AcDbVertex
100
AcDb2dVertex
 10
97.09571
 20
157.215554
 30
0.0
  0
VERTEX
  5
EF
100
AcDbEntity
  8
LAYER_1
 62
     7
100
AcDbVertex
100
AcDb2dVertex
 10
97.09571
 20
161.919316
 30
0.0
  0
VERTEX
  5
F0
100
AcDbEntity
  8
LAYER_1
 62
     7
100
AcDbVertex
100
AcDb2dVertex
 10
105.444899
 20
161.919316
 30
0.0
  0
SEQEND
  5
F1
100
AcDbEntity
  8
LAYER_1
 62
     7
  0
POLYLINE
  5
E6
100
AcDbEntity
  8
LAYER_1
 62
     7
100
AcDb2dPolyline
 66
     1
 10
0.0
 20
0.0
 30
0.0
 70
     1
  0
VERTEX
  5
E7
100
AcDbEntity
  8
LAYER_1
 62
     7
100
AcDbVertex
100
AcDb2dVertex
 10
118.380027
 20
157.215554
 30
0.0
  0
VERTEX
  5
E8
100
AcDbEntity
  8
LAYER_1
 62
     7
100
AcDbVertex
100
AcDb2dVertex
 10
110.030838
 20
157.215554
 30
0.0
  0
VERTEX
  5
E9
100
AcDbEntity
  8
LAYER_1
 62
     7
100
AcDbVertex
100
AcDb2dVertex
 10
110.030838
 20
161.919316
 30
0.0
  0
VERTEX
  5
EA
100
AcDbEntity
  8
LAYER_1
 62
     7
100
AcDbVertex
100
AcDb2dVertex
 10
118.380027
 20
161.919316
 30
0.0
  0
SEQEND
  5
EB
100
AcDbEntity
  8
LAYER_1
 62
     7
  0
POLYLINE
  5
E0
100
AcDbEntity
  8
LAYER_1
 62
     7
100
AcDb2dPolyline
 66
     1
 10
0.0
 20
0.0
 30
0.0
 70
     1
  0
VERTEX
  5
E1
100
AcDbEntity
  8
LAYER_1
 62
     7
100
AcDbVertex
100
AcDb2dVertex
 10
131.315327
 20
157.215554
 30
0.0
  0
VERTEX
  5
E2
100
AcDbEntity
  8
LAYER_1
 62
     7
100
AcDbVertex
100
AcDb2dVertex
 10
122.966138
 20
157.215554
 30
0.0
  0
VERTEX
  5
E3
100
AcDbEntity
  8
LAYER_1
 62
     7
100
AcDbVertex
100
AcDb2dVertex
 10
122.966138
 20
161.919316
 30
0.0
  0
VERTEX
  5
E4
100
AcDbEntity
  8
LAYER_1
 62
     7
100
AcDbVertex
100
AcDb2dVertex
 10
131.315327
 20
161.919316
 30
0.0
  0
SEQEND
  5
E5
100
AcDbEntity
  8
LAYER_1
 62
     7
  0
POLYLINE
  5
DA
100
AcDbEntity
  8
LAYER_1
 62
     7
100
AcDb2dPolyline
 66
     1
 10
0.0
 20
0.0
 30
0.0
 70
     1
  0
VERTEX
  5
DB
100
AcDbEntity
  8
LAYER_1
 62
     7
100
AcDbVertex
100
AcDb2dVertex
 10
92.744899
 20
148.27846
 30
0.0
  0
VERTEX
  5
DC
100
AcDbEntity
  8
LAYER_1
 62
     7
100
AcDbVertex
100
AcDb2dVertex
 10
84.39571
 20
148.27846
 30
0.0
  0
VERTEX
  5
DD
100
AcDbEntity
  8
LAYER_1
 62
     7
100
AcDbVertex
100
AcDb2dVertex
 10
84.39571
 20
152.982221
 30
0.0
  0
VERTEX
  5
DE
100
AcDbEntity
  8
LAYER_1
 62
     7
100
AcDbVertex
100
AcDb2dVertex
 10
92.744899
 20
152.982221
 30
0.0
  0
SEQEND
  5
DF
100
AcDbEntity
  8
LAYER_1
 62
     7
  0
POLYLINE
  5
D4
100
AcDbEntity
  8
LAYER_1
 62
     7
100
AcDb2dPolyline
 66
     1
 10
0.0
 20
0.0
 30
0.0
 70
     1
  0
VERTEX
  5
D5
100
AcDbEntity
  8
LAYER_1
 62
     7
100
AcDbVertex
100
AcDb2dVertex
 10
105.444899
 20
148.27846
 30
0.0
  0
VERTEX
  5
D6
100
AcDbEntity
  8
LAYER_1
 62
     7
100
AcDbVertex
100
AcDb2dVertex
 10
97.09571
 20
148.27846
 30
0.0
  0
VERTEX
  5
D7
100
AcDbEntity
  8
LAYER_1
 62
     7
100
AcDbVertex
100
AcDb2dVertex
 10
97.09571
 20
152.982221
 30
0.0
  0
VERTEX
  5
D8
100
AcDbEntity
  8
LAYER_1
 62
     7
100
AcDbVertex
100
AcDb2dVertex
 10
105.444899
 20
152.982221
 30
0.0
  0
SEQEND
  5
D9
100
AcDbEntity
  8
LAYER_1
 62
     7
  0
POLYLINE
  5
CE
100
AcDbEntity
  8
LAYER_1
 62
     7
100
AcDb2dPolyline
 66
     1
 10
0.0
 20
0.0
 30
0.0
 70
     1
  0
VERTEX
  5
CF
100
AcDbEntity
  8
LAYER_1
 62
     7
100
AcDbVertex
100
AcDb2dVertex
 10
118.380027
 20
148.27846
 30
0.0
  0
VERTEX
  5
D0
100
AcDbEntity
  8
LAYER_1
 62
     7
100
AcDbVertex
100
AcDb2dVertex
 10
110.030838
 20
148.27846
 30
0.0
  0
VERTEX
  5
D1
100
AcDbEntity
  8
LAYER_1
 62
     7
100
AcDbVertex
100
AcDb2dVertex
 10
110.030838
 20
152.982221
 30
0.0
  0
VERTEX
  5
D2
100
AcDbEntity
  8
LAYER_1
 62
     7
100
AcDbVertex
100
AcDb2dVertex
 10
118.380027
 20
152.982221
 30
0.0
  0
SEQEND
  5
D3
100
AcDbEntity
  8
LAYER_1
 62
     7
  0
POLYLINE
  5
C8
100
AcDbEntity
  8
LAYER_1
 62
     7
100
AcDb2dPolyline
 66
     1
 10
0.0
 20
0.0
 30
0.0
 70
     1
  0
VERTEX
  5
C9
100
AcDbEntity
  8
LAYER_1
 62
     7
100
AcDbVertex
100
AcDb2dVertex
 10
131.315327
 20
148.27846
 30
0.0
  0
VERTEX
  5
CA
100
AcDbEntity
  8
LAYER_1
 62
     7
100
AcDbVertex
100
AcDb2dVertex
 10
122.966138
 20
148.27846
 30
0.0
  0
VERTEX
  5
CB
100
AcDbEntity
  8
LAYER_1
 62
     7
100
AcDbVertex
100
AcDb2dVertex
 10
122.966138
 20
152.982221
 30
0.0
  0
VERTEX
  5
CC
100
AcDbEntity
  8
LAYER_1
 62
     7
100
AcDbVertex
100
AcDb2dVertex
 10
131.315327
 20
152.982221
 30
0.0
  0
SEQEND
  5
CD
100
AcDbEntity
  8
LAYER_1
 62
     7
  0
POLYLINE
  5
C2
100
AcDbEntity
  8
LAYER_1
 62
     7
100
AcDb2dPolyline
 66
     1
 10
0.0
 20
0.0
 30
0.0
 70
     1
  0
VERTEX
  5
C3
100
AcDbEntity
  8
LAYER_1
 62
     7
100
AcDbVertex
100
AcDb2dVertex
 10
92.744899
 20
139.223888
 30
0.0
  0
VERTEX
  5
C4
100
AcDbEntity
  8
LAYER_1
 62
     7
100
AcDbVertex
100
AcDb2dVertex
 10
84.39571
 20
139.223888
 30
0.0
  0
VERTEX
  5
C5
100
AcDbEntity
  8
LAYER_1
 62
     7
100
AcDbVertex
100
AcDb2dVertex
 10
84.39571
 20
143.927477
 30
0.0
  0
VERTEX
  5
C6
100
AcDbEntity
  8
LAYER_1
 62
     7
100
AcDbVertex
100
AcDb2dVertex
 10
92.744899
 20
143.927477
 30
0.0
  0
SEQEND
  5
C7
100
AcDbEntity
  8
LAYER_1
 62
     7
  0
POLYLINE
  5
BC
100
AcDbEntity
  8
LAYER_1
 62
     7
100
AcDb2dPolyline
 66
     1
 10
0.0
 20
0.0
 30
0.0
 70
     1
  0
VERTEX
  5
BD
100
AcDbEntity
  8
LAYER_1
 62
     7
100
AcDbVertex
100
AcDb2dVertex
 10
105.444899
 20
139.223888
 30
0.0
  0
VERTEX
  5
BE
100
AcDbEntity
  8
LAYER_1
 62
     7
100
AcDbVertex
100
AcDb2dVertex
 10
97.09571
 20
139.223888
 30
0.0
  0
VERTEX
  5
BF
100
AcDbEntity
  8
LAYER_1
 62
     7
100
AcDbVertex
100
AcDb2dVertex
 10
97.09571
 20
143.927477
 30
0.0
  0
VERTEX
  5
C0
100
AcDbEntity
  8
LAYER_1
 62
     7
100
AcDbVertex
100
AcDb2dVertex
 10
105.444899
 20
143.927477
 30
0.0
  0
SEQEND
  5
C1
100
AcDbEntity
  8
LAYER_1
 62
     7
  0
POLYLINE
  5
B6
100
AcDbEntity
  8
LAYER_1
 62
     7
100
AcDb2dPolyline
 66
     1
 10
0.0
 20
0.0
 30
0.0
 70
     1
  0
VERTEX
  5
B7
100
AcDbEntity
  8
LAYER_1
 62
     7
100
AcDbVertex
100
AcDb2dVertex
 10
118.380027
 20
139.223888
 30
0.0
  0
VERTEX
  5
B8
100
AcDbEntity
  8
LAYER_1
 62
     7
100
AcDbVertex
100
AcDb2dVertex
 10
110.030838
 20
139.223888
 30
0.0
  0
VERTEX
  5
B9
100
AcDbEntity
  8
LAYER_1
 62
     7
100
AcDbVertex
100
AcDb2dVertex
 10
110.030838
 20
143.927477
 30
0.0
  0
VERTEX
  5
BA
100
AcDbEntity
  8
LAYER_1
 62
     7
100
AcDbVertex
100
AcDb2dVertex
 10
118.380027
 20
143.927477
 30
0.0
  0
SEQEND
  5
BB
100
AcDbEntity
  8
LAYER_1
 62
     7
  0
POLYLINE
  5
B0
100
AcDbEntity
  8
LAYER_1
 62
     7
100
AcDb2dPolyline
 66
     1
 10
0.0
 20
0.0
 30
0.0
 70
     1
  0
VERTEX
  5
B1
100
AcDbEntity
  8
LAYER_1
 62
     7
100
AcDbVertex
100
AcDb2dVertex
 10
131.315327
 20
139.223888
 30
0.0
  0
VERTEX
  5
B2
100
AcDbEntity
  8
LAYER_1
 62
     7
100
AcDbVertex
100
AcDb2dVertex
 10
122.966138
 20
139.223888
 30
0.0
  0
VERTEX
  5
B3
100
AcDbEntity
  8
LAYER_1
 62
     7
100
AcDbVertex
100
AcDb2dVertex
 10
122.966138
 20
143.927477
 30
0.0
  0
VERTEX
  5
B4
100
AcDbEntity
  8
LAYER_1
 62
     7
100
AcDbVertex
100
AcDb2dVertex
 10
131.315327
 20
143.927477
 30
0.0
  0
SEQEND
  5
B5
100
AcDbEntity
  8
LAYER_1
 62
     7
  0
POLYLINE
  5
AA
100
AcDbEntity
  8
LAYER_1
 62
     7
100
AcDb2dPolyline
 66
     1
 10
0.0
 20
0.0
 30
0.0
 70
     1
  0
VERTEX
  5
AB
100
AcDbEntity
  8
LAYER_1
 62
     7
100
AcDbVertex
100
AcDb2dVertex
 10
92.744899
 20
130.286966
 30
0.0
  0
VERTEX
  5
AC
100
AcDbEntity
  8
LAYER_1
 62
     7
100
AcDbVertex
100
AcDb2dVertex
 10
84.39571
 20
130.286966
 30
0.0
  0
VERTEX
  5
AD
100
AcDbEntity
  8
LAYER_1
 62
     7
100
AcDbVertex
100
AcDb2dVertex
 10
84.39571
 20
134.990554
 30
0.0
  0
VERTEX
  5
AE
100
AcDbEntity
  8
LAYER_1
 62
     7
100
AcDbVertex
100
AcDb2dVertex
 10
92.744899
 20
134.990554
 30
0.0
  0
SEQEND
  5
AF
100
AcDbEntity
  8
LAYER_1
 62
     7
  0
POLYLINE
  5
A4
100
AcDbEntity
  8
LAYER_1
 62
     7
100
AcDb2dPolyline
 66
     1
 10
0.0
 20
0.0
 30
0.0
 70
     1
  0
VERTEX
  5
A5
100
AcDbEntity
  8
LAYER_1
 62
     7
100
AcDbVertex
100
AcDb2dVertex
 10
105.444899
 20
130.286966
 30
0.0
  0
VERTEX
  5
A6
100
AcDbEntity
  8
LAYER_1
 62
     7
100
AcDbVertex
100
AcDb2dVertex
 10
97.09571
 20
130.286966
 30
0.0
  0
VERTEX
  5
A7
100
AcDbEntity
  8
LAYER_1
 62
     7
100
AcDbVertex
100
AcDb2dVertex
 10
97.09571
 20
134.990554
 30
0.0
  0
VERTEX
  5
A8
100
AcDbEntity
  8
LAYER_1
 62
     7
100
AcDbVertex
100
AcDb2dVertex
 10
105.444899
 20
134.990554
 30
0.0
  0
SEQEND
  5
A9
100
AcDbEntity
  8
LAYER_1
 62
     7
  0
POLYLINE
  5
9E
100
AcDbEntity
  8
LAYER_1
 62
     7
100
AcDb2dPolyline
 66
     1
 10
0.0
 20
0.0
 30
0.0
 70
     1
  0
VERTEX
  5
9F
100
AcDbEntity
  8
LAYER_1
 62
     7
100
AcDbVertex
100
AcDb2dVertex
 10
118.380027
 20
130.286966
 30
0.0
  0
VERTEX
  5
A0
100
AcDbEntity
  8
LAYER_1
 62
     7
100
AcDbVertex
100
AcDb2dVertex
 10
110.030838
 20
130.286966
 30
0.0
  0
VERTEX
  5
A1
100
AcDbEntity
  8
LAYER_1
 62
     7
100
AcDbVertex
100
AcDb2dVertex
 10
110.030838
 20
134.990554
 30
0.0
  0
VERTEX
  5
A2
100
AcDbEntity
  8
LAYER_1
 62
     7
100
AcDbVertex
100
AcDb2dVertex
 10
118.380027
 20
134.990554
 30
0.0
  0
SEQEND
  5
A3
100
AcDbEntity
  8
LAYER_1
 62
     7
  0
POLYLINE
  5
98
100
AcDbEntity
  8
LAYER_1
 62
     7
100
AcDb2dPolyline
 66
     1
 10
0.0
 20
0.0
 30
0.0
 70
     1
  0
VERTEX
  5
99
100
AcDbEntity
  8
LAYER_1
 62
     7
100
AcDbVertex
100
AcDb2dVertex
 10
131.315327
 20
130.286966
 30
0.0
  0
VERTEX
  5
9A
100
AcDbEntity
  8
LAYER_1
 62
     7
100
AcDbVertex
100
AcDb2dVertex
 10
122.966138
 20
130.286966
 30
0.0
  0
VERTEX
  5
9B
100
AcDbEntity
  8
LAYER_1
 62
     7
100
AcDbVertex
100
AcDb2dVertex
 10
122.966138
 20
134.990554
 30
0.0
  0
VERTEX
  5
9C
100
AcDbEntity
  8
LAYER_1
 62
     7
100
AcDbVertex
100
AcDb2dVertex
 10
131.315327
 20
134.990554
 30
0.0
  0
SEQEND
  5
9D
100
AcDbEntity
  8
LAYER_1
 62
     7
  0
POLYLINE
  5
92
100
AcDbEntity
  8
LAYER_1
 62
     7
100
AcDb2dPolyline
 66
     1
 10
0.0
 20
0.0
 30
0.0
 70
     1
  0
VERTEX
  5
93
100
AcDbEntity
  8
LAYER_1
 62
     7
100
AcDbVertex
100
AcDb2dVertex
 10
92.744899
 20
121.114743
 30
0.0
  0
VERTEX
  5
94
100
AcDbEntity
  8
LAYER_1
 62
     7
100
AcDbVertex
100
AcDb2dVertex
 10
84.39571
 20
121.114743
 30
0.0
  0
VERTEX
  5
95
100
AcDbEntity
  8
LAYER_1
 62
     7
100
AcDbVertex
100
AcDb2dVertex
 10
84.39571
 20
125.818332
 30
0.0
  0
VERTEX
  5
96
100
AcDbEntity
  8
LAYER_1
 62
     7
100
AcDbVertex
100
AcDb2dVertex
 10
92.744899
 20
125.818332
 30
0.0
  0
SEQEND
  5
97
100
AcDbEntity
  8
LAYER_1
 62
     7
  0
POLYLINE
  5
8C
100
AcDbEntity
  8
LAYER_1
 62
     7
100
AcDb2dPolyline
 66
     1
 10
0.0
 20
0.0
 30
0.0
 70
     1
  0
VERTEX
  5
8D
100
AcDbEntity
  8
LAYER_1
 62
     7
100
AcDbVertex
100
AcDb2dVertex
 10
105.444899
 20
121.114743
 30
0.0
  0
VERTEX
  5
8E
100
AcDbEntity
  8
LAYER_1
 62
     7
100
AcDbVertex
100
AcDb2dVertex
 10
97.09571
 20
121.114743
 30
0.0
  0
VERTEX
  5
8F
100
AcDbEntity
  8
LAYER_1
 62
     7
100
AcDbVertex
100
AcDb2dVertex
 10
97.09571
 20
125.818332
 30
0.0
  0
VERTEX
  5
90
100
AcDbEntity
  8
LAYER_1
 62
     7
100
AcDbVertex
100
AcDb2dVertex
 10
105.444899
 20
125.818332
 30
0.0
  0
SEQEND
  5
91
100
AcDbEntity
  8
LAYER_1
 62
     7
  0
POLYLINE
  5
86
100
AcDbEntity
  8
LAYER_1
 62
     7
100
AcDb2dPolyline
 66
     1
 10
0.0
 20
0.0
 30
0.0
 70
     1
  0
VERTEX
  5
87
100
AcDbEntity
  8
LAYER_1
 62
     7
100
AcDbVertex
100
AcDb2dVertex
 10
118.380027
 20
121.114743
 30
0.0
  0
VERTEX
  5
88
100
AcDbEntity
  8
LAYER_1
 62
     7
100
AcDbVertex
100
AcDb2dVertex
 10
110.030838
 20
121.114743
 30
0.0
  0
VERTEX
  5
89
100
AcDbEntity
  8
LAYER_1
 62
     7
100
AcDbVertex
100
AcDb2dVertex
 10
110.030838
 20
125.818332
 30
0.0
  0
VERTEX
  5
8A
100
AcDbEntity
  8
LAYER_1
 62
     7
100
AcDbVertex
100
AcDb2dVertex
 10
118.380027
 20
125.818332
 30
0.0
  0
SEQEND
  5
8B
100
AcDbEntity
  8
LAYER_1
 62
     7
  0
POLYLINE
  5
80
100
AcDbEntity
  8
LAYER_1
 62
     7
100
AcDb2dPolyline
 66
     1
 10
0.0
 20
0.0
 30
0.0
 70
     1
  0
VERTEX
  5
81
100
AcDbEntity
  8
LAYER_1
 62
     7
100
AcDbVertex
100
AcDb2dVertex
 10
131.315327
 20
121.114743
 30
0.0
  0
VERTEX
  5
82
100
AcDbEntity
  8
LAYER_1
 62
     7
100
AcDbVertex
100
AcDb2dVertex
 10
122.966138
 20
121.114743
 30
0.0
  0
VERTEX
  5
83
100
AcDbEntity
  8
LAYER_1
 62
     7
100
AcDbVertex
100
AcDb2dVertex
 10
122.966138
 20
125.818332
 30
0.0
  0
VERTEX
  5
84
100
AcDbEntity
  8
LAYER_1
 62
     7
100
AcDbVertex
100
AcDb2dVertex
 10
131.315327
 20
125.818332
 30
0.0
  0
SEQEND
  5
85
100
AcDbEntity
  8
LAYER_1
 62
     7
  0
POLYLINE
  5
7A
100
AcDbEntity
  8
LAYER_1
 62
     7
100
AcDb2dPolyline
 66
     1
 10
0.0
 20
0.0
 30
0.0
 70
     1
  0
VERTEX
  5
7B
100
AcDbEntity
  8
LAYER_1
 62
     7
100
AcDbVertex
100
AcDb2dVertex
 10
92.744899
 20
112.177477
 30
0.0
  0
VERTEX
  5
7C
100
AcDbEntity
  8
LAYER_1
 62
     7
100
AcDbVertex
100
AcDb2dVertex
 10
84.39571
 20
112.177477
 30
0.0
  0
VERTEX
  5
7D
100
AcDbEntity
  8
LAYER_1
 62
     7
100
AcDbVertex
100
AcDb2dVertex
 10
84.39571
 20
116.88141
 30
0.0
  0
VERTEX
  5
7E
100
AcDbEntity
  8
LAYER_1
 62
     7
100
AcDbVertex
100
AcDb2dVertex
 10
92.744899
 20
116.88141
 30
0.0
  0
SEQEND
  5
7F
100
AcDbEntity
  8
LAYER_1
 62
     7
  0
POLYLINE
  5
74
100
AcDbEntity
  8
LAYER_1
 62
     7
100
AcDb2dPolyline
 66
     1
 10
0.0
 20
0.0
 30
0.0
 70
     1
  0
VERTEX
  5
75
100
AcDbEntity
  8
LAYER_1
 62
     7
100
AcDbVertex
100
AcDb2dVertex
 10
105.444899
 20
112.177477
 30
0.0
  0
VERTEX
  5
76
100
AcDbEntity
  8
LAYER_1
 62
     7
100
AcDbVertex
100
AcDb2dVertex
 10
97.09571
 20
112.177477
 30
0.0
  0
VERTEX
  5
77
100
AcDbEntity
  8
LAYER_1
 62
     7
100
AcDbVertex
100
AcDb2dVertex
 10
97.09571
 20
116.88141
 30
0.0
  0
VERTEX
  5
78
100
AcDbEntity
  8
LAYER_1
 62
     7
100
AcDbVertex
100
AcDb2dVertex
 10
105.444899
 20
116.88141
 30
0.0
  0
SEQEND
  5
79
100
AcDbEntity
  8
LAYER_1
 62
     7
  0
POLYLINE
  5
6E
100
AcDbEntity
  8
LAYER_1
 62
     7
100
AcDb2dPolyline
 66
     1
 10
0.0
 20
0.0
 30
0.0
 70
     1
  0
VERTEX
  5
6F
100
AcDbEntity
  8
LAYER_1
 62
     7
100
AcDbVertex
100
AcDb2dVertex
 10
118.380027
 20
112.177477
 30
0.0
  0
VERTEX
  5
70
100
AcDbEntity
  8
LAYER_1
 62
     7
100
AcDbVertex
100
AcDb2dVertex
 10
110.030838
 20
112.177477
 30
0.0
  0
VERTEX
  5
71
100
AcDbEntity
  8
LAYER_1
 62
     7
100
AcDbVertex
100
AcDb2dVertex
 10
110.030838
 20
116.88141
 30
0.0
  0
VERTEX
  5
72
100
AcDbEntity
  8
LAYER_1
 62
     7
100
AcDbVertex
100
AcDb2dVertex
 10
118.380027
 20
116.88141
 30
0.0
  0
SEQEND
  5
73
100
AcDbEntity
  8
LAYER_1
 62
     7
  0
POLYLINE
  5
68
100
AcDbEntity
  8
LAYER_1
 62
     7
100
AcDb2dPolyline
 66
     1
 10
0.0
 20
0.0
 30
0.0
 70
     1
  0
VERTEX
  5
69
100
AcDbEntity
  8
LAYER_1
 62
     7
100
AcDbVertex
100
AcDb2dVertex
 10
131.315327
 20
112.177477
 30
0.0
  0
VERTEX
  5
6A
100
AcDbEntity
  8
LAYER_1
 62
     7
100
AcDbVertex
100
AcDb2dVertex
 10
122.966138
 20
112.177477
 30
0.0
  0
VERTEX
  5
6B
100
AcDbEntity
  8
LAYER_1
 62
     7
100
AcDbVertex
100
AcDb2dVertex
 10
122.966138
 20
116.88141
 30
0.0
  0
VERTEX
  5
6C
100
AcDbEntity
  8
LAYER_1
 62
     7
100
AcDbVertex
100
AcDb2dVertex
 10
131.315327
 20
116.88141
 30
0.0
  0
SEQEND
  5
6D
100
AcDbEntity
  8
LAYER_1
 62
     7
  0
POLYLINE
  5
62
100
AcDbEntity
  8
LAYER_1
 62
     7
100
AcDb2dPolyline
 66
     1
 10
0.0
 20
0.0
 30
0.0
 70
     1
  0
VERTEX
  5
63
100
AcDbEntity
  8
LAYER_1
 62
     7
100
AcDbVertex
100
AcDb2dVertex
 10
92.744899
 20
103.123077
 30
0.0
  0
VERTEX
  5
64
100
AcDbEntity
  8
LAYER_1
 62
     7
100
AcDbVertex
100
AcDb2dVertex
 10
84.39571
 20
103.123077
 30
0.0
  0
VERTEX
  5
65
100
AcDbEntity
  8
LAYER_1
 62
     7
100
AcDbVertex
100
AcDb2dVertex
 10
84.39571
 20
107.826666
 30
0.0
  0
VERTEX
  5
66
100
AcDbEntity
  8
LAYER_1
 62
     7
100
AcDbVertex
100
AcDb2dVertex
 10
92.744899
 20
107.826666
 30
0.0
  0
SEQEND
  5
67
100
AcDbEntity
  8
LAYER_1
 62
     7
  0
POLYLINE
  5
5C
100
AcDbEntity
  8
LAYER_1
 62
     7
100
AcDb2dPolyline
 66
     1
 10
0.0
 20
0.0
 30
0.0
 70
     1
  0
VERTEX
  5
5D
100
AcDbEntity
  8
LAYER_1
 62
     7
100
AcDbVertex
100
AcDb2dVertex
 10
105.444899
 20
103.123077
 30
0.0
  0
VERTEX
  5
5E
100
AcDbEntity
  8
LAYER_1
 62
     7
100
AcDbVertex
100
AcDb2dVertex
 10
97.09571
 20
103.123077
 30
0.0
  0
VERTEX
  5
5F
100
AcDbEntity
  8
LAYER_1
 62
     7
100
AcDbVertex
100
AcDb2dVertex
 10
97.09571
 20
107.826666
 30
0.0
  0
VERTEX
  5
60
100
AcDbEntity
  8
LAYER_1
 62
     7
100
AcDbVertex
100
AcDb2dVertex
 10
105.444899
 20
107.826666
 30
0.0
  0
SEQEND
  5
61
100
AcDbEntity
  8
LAYER_1
 62
     7
  0
POLYLINE
  5
56
100
AcDbEntity
  8
LAYER_1
 62
     7
100
AcDb2dPolyline
 66
     1
 10
0.0
 20
0.0
 30
0.0
 70
     1
  0
VERTEX
  5
57
100
AcDbEntity
  8
LAYER_1
 62
     7
100
AcDbVertex
100
AcDb2dVertex
 10
118.380027
 20
103.123077
 30
0.0
  0
VERTEX
  5
58
100
AcDbEntity
  8
LAYER_1
 62
     7
100
AcDbVertex
100
AcDb2dVertex
 10
110.030838
 20
103.123077
 30
0.0
  0
VERTEX
  5
59
100
AcDbEntity
  8
LAYER_1
 62
     7
100
AcDbVertex
100
AcDb2dVertex
 10
110.030838
 20
107.826666
 30
0.0
  0
VERTEX
  5
5A
100
AcDbEntity
  8
LAYER_1
 62
     7
100
AcDbVertex
100
AcDb2dVertex
 10
118.380027
 20
107.826666
 30
0.0
  0
SEQEND
  5
5B
100
AcDbEntity
  8
LAYER_1
 62
     7
  0
POLYLINE
  5
50
100
AcDbEntity
  8
LAYER_1
 62
     7
100
AcDb2dPolyline
 66
     1
 10
0.0
 20
0.0
 30
0.0
 70
     1
  0
VERTEX
  5
51
100
AcDbEntity
  8
LAYER_1
 62
     7
100
AcDbVertex
100
AcDb2dVertex
 10
131.315327
 20
103.123077
 30
0.0
  0
VERTEX
  5
52
100
AcDbEntity
  8
LAYER_1
 62
     7
100
AcDbVertex
100
AcDb2dVertex
 10
122.966138
 20
103.123077
 30
0.0
  0
VERTEX
  5
53
100
AcDbEntity
  8
LAYER_1
 62
     7
100
AcDbVertex
100
AcDb2dVertex
 10
122.966138
 20
107.826666
 30
0.0
  0
VERTEX
  5
54
100
AcDbEntity
  8
LAYER_1
 62
     7
100
AcDbVertex
100
AcDb2dVertex
 10
131.315327
 20
107.826666
 30
0.0
  0
SEQEND
  5
55
100
AcDbEntity
  8
LAYER_1
 62
     7
  0
SPLINE
  5
4F
100
AcDbEntity
  8
LAYER_1
 62
     7
100
AcDbSpline
210
0.0
220
0.0
230
1.0
 70
     8
 71
     3
 72
    11
 73
     7
 74
     0
 42
0.00000001
 43
0.00000001
 40
0.0
 40
0.0
 40
0.0
 40
0.0
 40
1.0
 40
1.0
 40
1.0
 40
2.0
 40
2.0
 40
2.0
 40
2.0
 10
82.383257378472209
 20
86.659998914930554
 30
0.0
 10
84.866137695312489
 20
85.48418782552082
 30
0.0
 10
101.68182101779513
 20
84.3083767361111
 30
0.0
 10
107.44391547309027
 20
84.3083767361111
 30
0.0
 10
113.08835991753472
 20
84.3083767361111
 30
0.0
 10
130.60942654079861
 20
85.131410047743046
 30
0.0
 10
134.13720431857638
 20
86.659998914930554
 30
0.0
  0
LINE
  5
4E
100
AcDbEntity
  8
LAYER_1
 62
     7
100
AcDbLine
 10
133.845405
 20
211.465645
 30
0.0
 11
162.251595
 21
211.465645
 31
0.0
  0
LINE
  5
4D
100
AcDbEntity
  8
LAYER_1
 62
     7
100
AcDbLine
 10
35.619531
 20
50.643593
 30
0.0
 11
93.116452
 21
50.643593
 31
0.0
  0
LINE
  5
4C
100
AcDbEntity
  8
LAYER_1
 62
     7
100
AcDbLine
 10
35.619531
 20
230.560259
 30
0.0
 11
93.116452
 21
230.560259
 31
0.0
  0
LINE
  5
4B
100
AcDbEntity
  8
LAYER_1
 62
     7
100
AcDbLine
 10
133.549471
 20
86.674468
 30
0.0
 11
161.955661
 21
86.674468
 31
0.0
  0
MTEXT
  5
4A
100
AcDbEntity
  8
LAYER_1
 62
     7
100
AcDbMText
 10
102.716728
 20
76.249773
 30
0.0
 40
4.199735
 41
0.0
 71
     1
 72
     2
  1
\fMyriad Roman|b0|i0;2.20"
  7
STD
210
0.0
220
0.0
230
1.0
 11
1.000001
 21
0.0
 31
0.0
  0
MTEXT
  5
49
100
AcDbEntity
  8
LAYER_1
 62
     7
100
AcDbMText
 10
148.346501
 20
160.214157
 30
0.0
 40
4.199735
 41
0.0
 71
     1
 72
     2
  1
\fMyriad Roman|b0|i0;4.915"
  7
STD
210
0.0
220
0.0
230
1.0
 11
1.000001
 21
0.0
 31
0.0
  0
LINE
  5
48
100
AcDbEntity
  8
LAYER_1
 62
     7
100
AcDbLine
 10
80.253844
 20
89.237275
 30
0.0
 11
80.253844
 21
71.492277
 31
0.0
  0
LINE
  5
47
100
AcDbEntity
  8
LAYER_1
 62
     7
100
AcDbLine
 10
78.748854
 20
60.392868
 30
0.0
 11
78.748854
 21
31.172947
 31
0.0
  0
LINE
  5
46
100
AcDbEntity
  8
LAYER_1
 62
     7
100
AcDbLine
 10
137.691509
 20
61.082921
 30
0.0
 11
137.691509
 21
31.203263
 31
0.0
  0
LINE
  5
45
100
AcDbEntity
  8
LAYER_1
 62
     7
100
AcDbLine
 10
135.639955
 20
89.237275
 30
0.0
 11
135.639955
 21
71.492277
 31
0.0
  0
MTEXT
  5
44
100
AcDbEntity
  8
LAYER_1
 62
     7
100
AcDbMText
 10
100.314635
 20
33.874065
 30
0.0
 40
4.199735
 41
0.0
 71
     1
 72
     2
  1
\fMyriad Roman|b0|i0;2.365"
  7
STD
210
0.0
220
0.0
230
1.0
 11
1.000001
 21
0.0
 31
0.0
  0
MTEXT
  5
43
100
AcDbEntity
  8
LAYER_1
 62
     7
100
AcDbMText
 10
33.83101
 20
154.006957
 30
0.0
 40
4.199735
 41
0.0
 71
     1
 72
     2
  1
\fMyriad Roman|b0|i0;7.125"
  7
STD
210
0.0
220
0.0
230
1.0
 11
1.000001
 21
0.0
 31
0.0
  0
MTEXT
  5
42
100
AcDbEntity
  8
LAYER_1
 62
     7
100
AcDbMText
 10
24.476887
 20
260.962054
 30
0.0
 40
5.249669
 41
0.0
 71
     1
 72
     2
  1
\fArial|b0|i0;48 Key Remote Control
  7
STD
210
0.0
220
0.0
230
1.0
 11
1.000001
 21
0.0
 31
0.0
  0
INSERT
  5
23
100
AcDbEntity
  8
LAYER_1
 62
     7
100
AcDbBlockReference
  2
AI9-BLK1
 10
110.981684
 20
4.953014
 30
0.0
  0
ENDSEC
  0
SECTION
  2
OBJECTS
  0
DICTIONARY
  5
19
100
AcDbDictionary
  3
ACAD_GROUP
350
1A
  3
ACAD_MLINESTYLE
350
1B
  0
DICTIONARY
  5
1A
102
{ACAD_REACTORS
330
19
102
}
100
AcDbDictionary
  0
DICTIONARY
  5
1B
102
{ACAD_REACTORS
330
19
102
}
100
AcDbDictionary
  3
STANDARD
350
1C
  0
MLINESTYLE
  5
1C
102
{ACAD_REACTORS
330
1B
102
}
100
AcDbMlineStyle
  2
STANDARD
 70
     0
  3

 62
     0
 51
90.0
 52
90.0
 71
     2
 49
0.5
 62
   256
  6
BYLAYER
 49
-0.5
 62
   256
  6
BYLAYER
  0
ENDSEC
  0
EOF
