  0
SECTION
  2
HEADER
  9
$ACADVER
  1
AC1014
  9
$ACADMAINTVER
 70
     0
  9
$DWGCODEPAGE
  3
ANSI_932
  9
$INSBASE
 10
0.0
 20
0.0
 30
0.0
  9
$EXTMIN
 10
66.418857
 20
42.150399
 30
1.000000E+20
  9
$EXTMAX
 10
193.417996
 20
218.019595
 30
-1.000000E+20
  9
$LIMMIN
 10
66.418857
 20
42.150399
  9
$LIMMAX
 10
193.417996
 20
218.019595
  9
$ORTHOMODE
 70
     0
  9
$REGENMODE
 70
     1
  9
$FILLMODE
 70
     1
  9
$QTEXTMODE
 70
     0
  9
$MIRRTEXT
 70
     1
  9
$DRAGMODE
 70
     2
  9
$LTSCALE
 40
1.0
  9
$OSMODE
 70
     0
  9
$ATTMODE
 70
     1
  9
$TEXTSIZE
 40
0.2
  9
$TRACEWID
 40
0.05
  9
$TEXTSTYLE
  7
STANDARD
  9
$CLAYER
  8
0
  9
$CELTYPE
  6
CONTINUOUS
  9
$CECOLOR
 62
   256
  9
$CELTSCALE
 40
1.0
  9
$DELOBJ
 70
     1
  9
$DISPSILH
 70
     0
  9
$DIMSCALE
 40
1.0
  9
$DIMASZ
 40
0.18
  9
$DIMEXO
 40
0.0625
  9
$DIMDLI
 40
0.38
  9
$DIMRND
 40
0.0
  9
$DIMDLE
 40
0.0
  9
$DIMEXE
 40
0.18
  9
$DIMTP
 40
0.0
  9
$DIMTM
 40
0.0
  9
$DIMTXT
 40
0.18
  9
$DIMCEN
 40
0.09
  9
$DIMTSZ
 40
0.0
  9
$DIMTOL
 70
     0
  9
$DIMLIM
 70
     0
  9
$DIMTIH
 70
     1
  9
$DIMTOH
 70
     1
  9
$DIMSE1
 70
     0
  9
$DIMSE2
 70
     0
  9
$DIMTAD
 70
     0
  9
$DIMZIN
 70
     0
  9
$DIMBLK
  1

  9
$DIMASO
 70
     1
  9
$DIMSHO
 70
     1
  9
$DIMPOST
  1

  9
$DIMAPOST
  1

  9
$DIMALT
 70
     0
  9
$DIMALTD
 70
     2
  9
$DIMALTF
 40
25.4
  9
$DIMLFAC
 40
1.0
  9
$DIMTOFL
 70
     0
  9
$DIMTVP
 40
0.0
  9
$DIMTIX
 70
     0
  9
$DIMSOXD
 70
     0
  9
$DIMSAH
 70
     0
  9
$DIMBLK1
  1

  9
$DIMBLK2
  1

  9
$DIMSTYLE
  2
STANDARD
  9
$DIMCLRD
 70
     0
  9
$DIMCLRE
 70
     0
  9
$DIMCLRT
 70
     0
  9
$DIMTFAC
 40
1.0
  9
$DIMGAP
 40
0.09
  9
$DIMJUST
 70
     0
  9
$DIMSD1
 70
     0
  9
$DIMSD2
 70
     0
  9
$DIMTOLJ
 70
     1
  9
$DIMTZIN
 70
     0
  9
$DIMALTZ
 70
     0
  9
$DIMALTTZ
 70
     0
  9
$DIMFIT
 70
     3
  9
$DIMUPT
 70
     0
  9
$DIMUNIT
 70
     2
  9
$DIMDEC
 70
     4
  9
$DIMTDEC
 70
     4
  9
$DIMALTU
 70
     2
  9
$DIMALTTD
 70
     2
  9
$DIMTXSTY
  7
STANDARD
  9
$DIMAUNIT
 70
     0
  9
$LUNITS
 70
     2
  9
$LUPREC
 70
     4
  9
$SKETCHINC
 40
0.1
  9
$FILLETRAD
 40
0.0
  9
$AUNITS
 70
     0
  9
$AUPREC
 70
     0
  9
$MENU
  1
acad
  9
$ELEVATION
 40
0.0
  9
$PELEVATION
 40
0.0
  9
$THICKNESS
 40
0.0
  9
$LIMCHECK
 70
     0
  9
$BLIPMODE
 70
     1
  9
$CHAMFERA
 40
0.0
  9
$CHAMFERB
 40
0.0
  9
$CHAMFERC
 40
0.0
  9
$CHAMFERD
 40
0.0
  9
$SKPOLY
 70
     0
  9
$TDCREATE
 40
0.000000000
  9
$TDUPDATE
 40
0.000000000
  9
$TDINDWG
 40
0.0000000000
  9
$TDUSRTIMER
 40
0.0000000000
  9
$USRTIMER
 70
     1
  9
$ANGBASE
 50
0.0
  9
$ANGDIR
 70
     0
  9
$PDMODE
 70
     0
  9
$PDSIZE
 40
0.0
  9
$PLINEWID
 40
0.0
  9
$COORDS
 70
     0
  9
$SPLFRAME
 70
     0
  9
$SPLINETYPE
 70
     6
  9
$SPLINESEGS
 70
     8
  9
$ATTDIA
 70
     0
  9
$ATTREQ
 70
     1
  9
$HANDLING
 70
     1
  9
$HANDSEED
  5
18A
  9
$SURFTAB1
 70
     6
  9
$SURFTAB2
 70
     6
  9
$SURFTYPE
 70
     6
  9
$SURFU
 70
     6
  9
$SURFV
 70
     6
  9
$UCSNAME
  2

  9
$UCSORG
 10
0.0
 20
0.0
 30
0.0
  9
$UCSXDIR
 10
1.0
 20
0.0
 30
0.0
  9
$UCSYDIR
 10
0.0
 20
1.0
 30
0.0
  9
$PUCSNAME
  2

  9
$PUCSORG
 10
0.0
 20
0.0
 30
0.0
  9
$PUCSXDIR
 10
1.0
 20
0.0
 30
0.0
  9
$PUCSYDIR
 10
0.0
 20
1.0
 30
0.0
  9
$USERI1
 70
     0
  9
$USERI2
 70
     0
  9
$USERI3
 70
     0
  9
$USERI4
 70
     0
  9
$USERI5
 70
     0
  9
$USERR1
 40
0.0
  9
$USERR2
 40
0.0
  9
$USERR3
 40
0.0
  9
$USERR4
 40
0.0
  9
$USERR5
 40
0.0
  9
$WORLDVIEW
 70
     1
  9
$SHADEDGE
 70
     3
  9
$SHADEDIF
 70
    70
  9
$TILEMODE
 70
     1
  9
$MAXACTVP
 70
    16
  9
$PINSBASE
 10
0.0
 20
0.0
 30
0.0
  9
$PLIMCHECK
 70
     0
  9
$PEXTMIN
 10
1.000000E+20
 20
1.000000E+20
 30
1.000000E+20
  9
$PEXTMAX
 10
-1.000000E+20
 20
-1.000000E+20
 30
-1.000000E+20
  9
$PLIMMIN
 10
0.0
 20
0.0
  9
$PLIMMAX
 10
12.0
 20
9.0
  9
$UNITMODE
 70
     0
  9
$VISRETAIN
 70
     0
  9
$PLINEGEN
 70
     1
  9
$PSLTSCALE
 70
     0
  9
$TREEDEPTH
 70
  3020
  9
$PICKSTYLE
 70
     1
  9
$CMLSTYLE
  2
STANDARD
  9
$CMLJUST
 70
     0
  9
$CMLSCALE
 40
1.0
  9
$PROXYGRAPHICS
 70
     0
  9
$MEASUREMENT
 70
     0
  0
ENDSEC
  0
SECTION
  2
CLASSES
  0
CLASS
  1
LWPOLYLINE
  2
AcDbPolyline
  3
"AutoCAD"
 90
        0
280
     0
281
     1
  0
CLASS
  1
IMAGE
  2
AcDbRasterImage
  3
ISM
 90
      127
280
     0
281
     1
  0
CLASS
  1
OLE2FRAME
  2
AcDbOle2Frame
  3
""
 90
        0
280
     0
281
     1
  0
CLASS
  1
HATCH
  2
AcDbHatch
  3
"ACAD_SEDONA"
 90
        0
280
     0
281
     1
  0
CLASS
  1
DICTIONARYVAR
  2
AcDbDictionaryVar
  3
"AutoCAD"
 90
        0
280
     0
281
     0
  0
CLASS
  1
RASTERVARIABLES
  2
AcDbRasterVariables
  3
ISM
 90
        0
280
     0
281
     0
  0
CLASS
  1
IMAGEDEF
  2
AcDbRasterImageDef
  3
ISM
 90
        0
280
     0
281
     0
  0
CLASS
  1
IMAGEDEF_REACTOR
  2
AcDbRasterImageDefReactor
  3
ISM
 90
        1
280
     0
281
     0
  0
CLASS
  1
IDBUFFER
  2
AcDbIdBuffer
  3
"Acad"
 90
        0
280
     0
281
     0
  0
CLASS
  1
SPATIAL_FILTER
  2
AcDbSpatialFilter
  3
"Acad"
 90
        0
280
     0
281
     0
  0
CLASS
  1
XRECORD
  2
AcDbXrecord
  3
"<Built In>"
 90
        0
280
     0
281
     0
  0
CLASS
  1
SORTENTSTABLE
  2
AcDbSortentsTable
  3
"AutoCAD"
 90
        0
280
     0
281
     0
  0
CLASS
  1
LAYER_INDEX
  2
AcDbLayerIndex
  3
"Acad"
 90
        0
280
     0
281
     0
  0
CLASS
  1
SPATIAL_INDEX
  2
AcDbSpatialIndex
  3
"Acad"
 90
        0
280
     0
281
     0
  0
CLASS
  1
OBJECT_PTR
  2
CAseDLPNTableRecord
  3
"ASE-LPNTableRecord"
 90
        1
280
     0
281
     0
  0
CLASS
  1
LAYOUT
  2
AcDbLayout
  3
"AutoCAD 2000"
 90
        1
280
     0
281
     0
  0
CLASS
  1
PLOTSETTINGS
  2
AcDbPlotSettings
  3
"AutoCAD 2000"
 90
        1
280
     0
281
     0
  0
CLASS
  1
ACDBDICTIONARYWDFLT
  2
AcDbDictionaryWithDefault
  3
"AutoCAD 2000"
 90
        1
280
     0
281
     0
  0
CLASS
  1
ACDBPLACEHOLDER
  2
AcDbPlaceHolder
  3
"AutoCAD 2000"
 90
        1
280
     0
281
     0
  0
CLASS
  1
VBA_PROJECT
  2
AcDbVbaProject
  3
"acadvba"
 90
        1
280
     0
281
     0
  0
CLASS
  1
WIPEOUT
  2
AcDbWipeout
  3
WipeOut|AutoCAD Express Tool|expresstools@autodesk.com
 90
      127
280
     0
281
     1
  0
CLASS
  1
WIPEOUTVARIABLES
  2
AcDbWipeoutVariables
  3
WipeOut|AutoCAD Express Tool|expresstools@autodesk.com
 90
        0
280
     0
281
     0
  0
CLASS
  1
RTEXT
  2
RText
  3
RText|AutoCAD Express Tool|expresstools@autodesk.com
 90
        0
280
     0
281
     1
  0
CLASS
  1
ARCALIGNEDTEXT
  2
AcDbArcAlignedText
  3
ATEXT|AutoCAD Express Tool|expresstools@autodesk.com
 90
        0
280
     0
281
     1
  0
ENDSEC
  0
SECTION
  2
TABLES
  0
TABLE
  2
VPORT
  5
7
100
AcDbSymbolTable
 70
     1
  0
VPORT
  5
15
100
AcDbSymbolTableRecord
100
AcDbViewportTableRecord
  2
*ACTIVE
 70
     0
 10
0.0
 20
0.0
 11
1.0
 21
1.0
 12
6.591288
 22
4.579184
 13
0.0
 23
0.0
 14
1.0
 24
1.0
 15
0.0
 25
0.0
 16
0.0
 26
0.0
 36
1.0
 17
0.0
 27
0.0
 37
0.0
 40
9.158369
 41
0.688564
 42
50.0
 43
0.0
 44
0.0
 50
0.0
 51
0.0
 71
     0
 72
   100
 73
     1
 74
     1
 75
     0
 76
     0
 77
     0
 78
     0
  0
ENDTAB
  0
TABLE
  2
LTYPE
  5
4
100
AcDbSymbolTable
 70
     3
  0
LTYPE
  5
11
100
AcDbSymbolTableRecord
100
AcDbLinetypeTableRecord
  2
BYBLOCK
 70
    64
  3

 72
    65
 73
     0
 40
0.0
  0
LTYPE
  5
12
100
AcDbSymbolTableRecord
100
AcDbLinetypeTableRecord
  2
BYLAYER
 70
    64
  3

 72
    65
 73
     0
 40
0.0
  0
LTYPE
  5
13
100
AcDbSymbolTableRecord
100
AcDbLinetypeTableRecord
  2
CONTINUOUS
 70
    64
  3
Solid line
 72
    65
 73
     0
 40
0.0
  0
ENDTAB
  0
TABLE
  2
LAYER
  5
2
100
AcDbSymbolTable
 70
     4
  0
LAYER
  5
14
100
AcDbSymbolTableRecord
100
AcDbLayerTableRecord
  2
0
 70
     0
 62
     7
  6
CONTINUOUS
  0
LAYER
  5
21
100
AcDbSymbolTableRecord
100
AcDbLayerTableRecord
  2
LAYER_3
 70
     0
 62
     3
  6
CONTINUOUS
  0
LAYER
  5
180
100
AcDbSymbolTableRecord
100
AcDbLayerTableRecord
  2
LAYER_1
 70
     0
 62
   160
  6
CONTINUOUS
  0
LAYER
  5
186
100
AcDbSymbolTableRecord
100
AcDbLayerTableRecord
  2
LAYER_2
 70
     4
 62
    -1
  6
CONTINUOUS
  0
ENDTAB
  0
TABLE
  2
STYLE
  5
3
100
AcDbSymbolTable
 70
     5
  0
STYLE
  5
17
100
AcDbSymbolTableRecord
100
AcDbTextStyleTableRecord
  2
STANDARD
 70
     0
 40
0.0
 41
1.0
 50
0.0
 71
     0
 42
0.0
  3
txt
  4

  0
STYLE
  5
1D
100
AcDbSymbolTableRecord
100
AcDbTextStyleTableRecord
  2
STD
 70
     0
 40
0.0
 41
1.0
 50
0.0
 71
     0
 42
0.0
  3
txt
  4

  0
STYLE
  5
1E
100
AcDbSymbolTableRecord
100
AcDbTextStyleTableRecord
  2
TATESTD
 70
     4
 40
0.0
 41
1.0
 50
0.0
 71
     0
 42
0.0
  3
txt
  4

  0
STYLE
  5
1F
100
AcDbSymbolTableRecord
100
AcDbTextStyleTableRecord
  2
KANJISTD
 70
     0
 40
0.0
 41
1.0
 50
0.0
 71
     0
 42
0.0
  3
txt
  4
extfont
  0
STYLE
  5
20
100
AcDbSymbolTableRecord
100
AcDbTextStyleTableRecord
  2
KANJITATE
 70
     4
 40
0.0
 41
1.0
 50
0.0
 71
     0
 42
0.0
  3
txt
  4
extfont
  0
ENDTAB
  0
TABLE
  2
VIEW
  5
5
100
AcDbSymbolTable
 70
     0
  0
ENDTAB
  0
TABLE
  2
UCS
  5
6
100
AcDbSymbolTable
 70
     0
  0
ENDTAB
  0
TABLE
  2
APPID
  5
8
100
AcDbSymbolTable
 70
     1
  0
APPID
  5
16
100
AcDbSymbolTableRecord
100
AcDbRegAppTableRecord
  2
ACAD
 70
     0
  0
ENDTAB
  0
TABLE
  2
DIMSTYLE
  5
9
100
AcDbSymbolTable
 70
     1
  0
DIMSTYLE
105
18
100
AcDbSymbolTableRecord
100
AcDbDimStyleTableRecord
  2
STANDARD
 70
     0
  3

  4

  5

  6

  7

 40
1.0
 41
0.18
 42
0.0625
 43
0.38
 44
0.18
 45
0.0
 46
0.0
 47
0.0
 48
0.0
 71
     0
 72
     0
 73
     1
 74
     1
 75
     0
 76
     0
 77
     0
 78
     0
140
0.18
141
0.09
142
0.0
143
25.4
144
1.0
145
0.0
146
1.0
147
0.09
170
     0
171
     2
172
     0
173
     0
174
     0
175
     0
176
     0
177
     0
178
     0
270
     2
271
     4
272
     4
273
     2
274
     2
275
     0
280
     0
281
     0
282
     0
283
     1
284
     0
285
     0
286
     0
287
     0
288
     0
340
17
  0
ENDTAB
  0
TABLE
  2
BLOCK_RECORD
  5
1
100
AcDbSymbolTable
 70
    32
  0
BLOCK_RECORD
  5
A
100
AcDbSymbolTableRecord
100
AcDbBlockTableRecord
  2
*MODEL_SPACE
  0
BLOCK_RECORD
  5
B
100
AcDbSymbolTableRecord
100
AcDbBlockTableRecord
  2
*PAPER_SPACE
  0
BLOCK_RECORD
  5
D0
100
AcDbSymbolTableRecord
100
AcDbBlockTableRecord
  2
AI9-BLK1
  0
BLOCK_RECORD
  5
D3
100
AcDbSymbolTableRecord
100
AcDbBlockTableRecord
  2
AI9-BLK2
  0
BLOCK_RECORD
  5
D8
100
AcDbSymbolTableRecord
100
AcDbBlockTableRecord
  2
AI9-BLK3
  0
BLOCK_RECORD
  5
DD
100
AcDbSymbolTableRecord
100
AcDbBlockTableRecord
  2
AI9-BLK4
  0
BLOCK_RECORD
  5
E6
100
AcDbSymbolTableRecord
100
AcDbBlockTableRecord
  2
AI9-BLK5
  0
BLOCK_RECORD
  5
E9
100
AcDbSymbolTableRecord
100
AcDbBlockTableRecord
  2
AI9-BLK6
  0
BLOCK_RECORD
  5
EE
100
AcDbSymbolTableRecord
100
AcDbBlockTableRecord
  2
AI9-BLK7
  0
BLOCK_RECORD
  5
F3
100
AcDbSymbolTableRecord
100
AcDbBlockTableRecord
  2
AI9-BLK8
  0
BLOCK_RECORD
  5
FC
100
AcDbSymbolTableRecord
100
AcDbBlockTableRecord
  2
AI9-BLK9
  0
BLOCK_RECORD
  5
FF
100
AcDbSymbolTableRecord
100
AcDbBlockTableRecord
  2
AI9-BLK10
  0
BLOCK_RECORD
  5
104
100
AcDbSymbolTableRecord
100
AcDbBlockTableRecord
  2
AI9-BLK11
  0
BLOCK_RECORD
  5
109
100
AcDbSymbolTableRecord
100
AcDbBlockTableRecord
  2
AI9-BLK12
  0
BLOCK_RECORD
  5
112
100
AcDbSymbolTableRecord
100
AcDbBlockTableRecord
  2
AI9-BLK13
  0
BLOCK_RECORD
  5
115
100
AcDbSymbolTableRecord
100
AcDbBlockTableRecord
  2
AI9-BLK14
  0
BLOCK_RECORD
  5
11A
100
AcDbSymbolTableRecord
100
AcDbBlockTableRecord
  2
AI9-BLK15
  0
BLOCK_RECORD
  5
11F
100
AcDbSymbolTableRecord
100
AcDbBlockTableRecord
  2
AI9-BLK16
  0
BLOCK_RECORD
  5
128
100
AcDbSymbolTableRecord
100
AcDbBlockTableRecord
  2
AI9-BLK17
  0
BLOCK_RECORD
  5
12B
100
AcDbSymbolTableRecord
100
AcDbBlockTableRecord
  2
AI9-BLK18
  0
BLOCK_RECORD
  5
130
100
AcDbSymbolTableRecord
100
AcDbBlockTableRecord
  2
AI9-BLK19
  0
BLOCK_RECORD
  5
135
100
AcDbSymbolTableRecord
100
AcDbBlockTableRecord
  2
AI9-BLK20
  0
BLOCK_RECORD
  5
13E
100
AcDbSymbolTableRecord
100
AcDbBlockTableRecord
  2
AI9-BLK21
  0
BLOCK_RECORD
  5
141
100
AcDbSymbolTableRecord
100
AcDbBlockTableRecord
  2
AI9-BLK22
  0
BLOCK_RECORD
  5
146
100
AcDbSymbolTableRecord
100
AcDbBlockTableRecord
  2
AI9-BLK23
  0
BLOCK_RECORD
  5
14B
100
AcDbSymbolTableRecord
100
AcDbBlockTableRecord
  2
AI9-BLK24
  0
BLOCK_RECORD
  5
154
100
AcDbSymbolTableRecord
100
AcDbBlockTableRecord
  2
AI9-BLK25
  0
BLOCK_RECORD
  5
157
100
AcDbSymbolTableRecord
100
AcDbBlockTableRecord
  2
AI9-BLK26
  0
BLOCK_RECORD
  5
15C
100
AcDbSymbolTableRecord
100
AcDbBlockTableRecord
  2
AI9-BLK27
  0
BLOCK_RECORD
  5
161
100
AcDbSymbolTableRecord
100
AcDbBlockTableRecord
  2
AI9-BLK28
  0
BLOCK_RECORD
  5
16A
100
AcDbSymbolTableRecord
100
AcDbBlockTableRecord
  2
AI9-BLK29
  0
BLOCK_RECORD
  5
16D
100
AcDbSymbolTableRecord
100
AcDbBlockTableRecord
  2
AI9-BLK30
  0
BLOCK_RECORD
  5
172
100
AcDbSymbolTableRecord
100
AcDbBlockTableRecord
  2
AI9-BLK31
  0
BLOCK_RECORD
  5
177
100
AcDbSymbolTableRecord
100
AcDbBlockTableRecord
  2
AI9-BLK32
  0
ENDTAB
  0
ENDSEC
  0
SECTION
  2
BLOCKS
  0
BLOCK
  5
D
100
AcDbEntity
  8
0
100
AcDbBlockBegin
  2
*MODEL_SPACE
 70
     0
 10
0.0
 20
0.0
 30
0.0
  3
*MODEL_SPACE
  1

  0
ENDBLK
  5
E
100
AcDbEntity
  8
0
100
AcDbBlockEnd
  0
BLOCK
  5
F
100
AcDbEntity
 67
     1
  8
0
100
AcDbBlockBegin
  2
*PAPER_SPACE
 70
     0
 10
0.0
 20
0.0
 30
0.0
  3
*PAPER_SPACE
  1

  0
ENDBLK
  5
10
100
AcDbEntity
 67
     1
  8
0
100
AcDbBlockEnd
  0
BLOCK
  5
D2
100
AcDbEntity
  8
LAYER_3
 62
     7
100
AcDbBlockBegin
  2
AI9-BLK1
 70
     0
 10
0.0
 20
0.0
 30
0.0
  3
AI9-BLK1
  1

  0
HATCH
  5
E4
100
AcDbEntity
  8
LAYER_3
 62
     7
100
AcDbHatch
 10
0.0
 20
0.0
 30
0.0
210
0.0
220
0.0
230
1.0
  2
SOLID
 70
     1
 71
     0
 91
        1
 92
        3
 72
     0
 73
     1
 93
        3
 10
-6.4075330946180546
 20
-10.919402398003472
 10
-4.8830783420138886
 20
-10.919402398003472
 10
-5.6454779730902773
 20
-6.3467271592881938
 97
        0
 75
     0
 76
     1
 98
        1
 10
0.0
 20
0.0
  0
HATCH
  5
E3
100
AcDbEntity
  8
LAYER_3
 62
     7
100
AcDbHatch
 10
0.0
 20
0.0
 30
0.0
210
0.0
220
0.0
230
1.0
  2
SOLID
 70
     1
 71
     0
 91
        1
 92
        3
 72
     0
 73
     1
 93
        3
 10
-6.4075330946180546
 20
8.0989027235243043
 10
-4.8830783420138886
 20
8.0989027235243043
 10
-5.6454779730902773
 20
3.5258829752604162
 97
        0
 75
     0
 76
     1
 98
        1
 10
0.0
 20
0.0
  0
MTEXT
  5
E2
100
AcDbEntity
  8
LAYER_3
 62
     7
100
AcDbMText
 10
1.213707
 20
14.957928
 30
0.0
 40
4.57286
 41
0.0
 71
     1
 72
     2
  1
\fMyriad Roman|b0|i0;0.3886
  7
STD
210
0.0
220
0.0
230
1.0
 11
1.000001
 21
0.0
 31
0.0
  0
INSERT
  5
DE
100
AcDbEntity
  8
LAYER_3
 62
     7
100
AcDbBlockReference
  2
AI9-BLK4
 10
-18.242125
 20
-6.346727
 30
0.0
  0
INSERT
  5
D9
100
AcDbEntity
  8
LAYER_3
 62
     7
100
AcDbBlockReference
  2
AI9-BLK3
 10
-18.242125
 20
3.525883
 30
0.0
  0
INSERT
  5
D4
100
AcDbEntity
  8
LAYER_3
 62
     7
100
AcDbBlockReference
  2
AI9-BLK2
 10
-5.645306
 20
3.525883
 30
0.0
  0
ENDBLK
  5
E5
100
AcDbEntity
  8
LAYER_3
100
AcDbBlockEnd
  0
BLOCK
  5
D5
100
AcDbEntity
  8
LAYER_3
 62
     7
100
AcDbBlockBegin
  2
AI9-BLK2
 70
     0
 10
0.0
 20
0.0
 30
0.0
  3
AI9-BLK2
  1

  0
HATCH
  5
D6
100
AcDbEntity
  8
LAYER_3
 62
     7
100
AcDbHatch
 10
0.0
 20
0.0
 30
0.0
210
0.0
220
0.0
230
1.0
  2
SOLID
 70
     1
 71
     0
 91
        1
 92
        1
 93
        1
 72
     4
 94
        3
 73
     0
 74
     0
 95
       17
 96
       13
 40
0.0
 40
0.0
 40
0.0
 40
0.0
 40
1.0
 40
1.0
 40
1.0
 40
2.0
 40
2.0
 40
2.0
 40
3.0
 40
3.0
 40
3.0
 40
4.0
 40
4.0
 40
4.0
 40
4.0
 10
0.00775146484375
 20
0.0
 10
0.00775146484375
 20
-0.0041341145833333
 10
0.0039618598090278
 20
-0.0075792100694444
 10
-0.0001722547743056
 20
-0.0075792100694444
 10
-0.0043063693576389
 20
-0.0075792100694444
 10
-0.00775146484375
 20
-0.0041341145833333
 10
-0.00775146484375
 20
0.0
 10
-0.00775146484375
 20
0.0044786241319444
 10
-0.0043063693576389
 20
0.0075792100694444
 10
-0.0001722547743056
 20
0.0075792100694444
 10
0.0039618598090278
 20
0.0075792100694444
 10
0.00775146484375
 20
0.0044786241319444
 10
0.00775146484375
 20
0.0
 97
        0
 75
     0
 76
     1
 98
        1
 10
0.0
 20
0.0
  0
ENDBLK
  5
D7
100
AcDbEntity
  8
LAYER_3
100
AcDbBlockEnd
  0
BLOCK
  5
DA
100
AcDbEntity
  8
LAYER_3
 62
     7
100
AcDbBlockBegin
  2
AI9-BLK3
 70
     0
 10
0.0
 20
0.0
 30
0.0
  3
AI9-BLK3
  1

  0
HATCH
  5
DB
100
AcDbEntity
  8
LAYER_3
 62
     7
100
AcDbHatch
 10
0.0
 20
0.0
 30
0.0
210
0.0
220
0.0
230
1.0
  2
SOLID
 70
     1
 71
     0
 91
        1
 92
        1
 93
        1
 72
     4
 94
        3
 73
     0
 74
     0
 95
       17
 96
       13
 40
0.0
 40
0.0
 40
0.0
 40
0.0
 40
1.0
 40
1.0
 40
1.0
 40
2.0
 40
2.0
 40
2.0
 40
3.0
 40
3.0
 40
3.0
 40
4.0
 40
4.0
 40
4.0
 40
4.0
 10
0.0075792100694444
 20
0.0
 10
0.0075792100694444
 20
-0.0041341145833333
 10
0.0044786241319444
 20
-0.0075792100694444
 10
0.0
 20
-0.0075792100694444
 10
-0.0041341145833333
 20
-0.0075792100694444
 10
-0.0075792100694444
 20
-0.0041341145833333
 10
-0.0075792100694444
 20
0.0
 10
-0.0075792100694444
 20
0.0044786241319444
 10
-0.0041341145833333
 20
0.0075792100694444
 10
0.0
 20
0.0075792100694444
 10
0.0044786241319444
 20
0.0075792100694444
 10
0.0075792100694444
 20
0.0044786241319444
 10
0.0075792100694444
 20
0.0
 97
        0
 75
     0
 76
     1
 98
        1
 10
0.0
 20
0.0
  0
ENDBLK
  5
DC
100
AcDbEntity
  8
LAYER_3
100
AcDbBlockEnd
  0
BLOCK
  5
DF
100
AcDbEntity
  8
LAYER_3
 62
     7
100
AcDbBlockBegin
  2
AI9-BLK4
 70
     0
 10
0.0
 20
0.0
 30
0.0
  3
AI9-BLK4
  1

  0
HATCH
  5
E0
100
AcDbEntity
  8
LAYER_3
 62
     7
100
AcDbHatch
 10
0.0
 20
0.0
 30
0.0
210
0.0
220
0.0
230
1.0
  2
SOLID
 70
     1
 71
     0
 91
        1
 92
        1
 93
        1
 72
     4
 94
        3
 73
     0
 74
     0
 95
       17
 96
       13
 40
0.0
 40
0.0
 40
0.0
 40
0.0
 40
1.0
 40
1.0
 40
1.0
 40
2.0
 40
2.0
 40
2.0
 40
3.0
 40
3.0
 40
3.0
 40
4.0
 40
4.0
 40
4.0
 40
4.0
 10
0.0075792100694444
 20
0.0
 10
0.0075792100694444
 20
-0.0044786241319444
 10
0.0044786241319444
 20
-0.0079237196180556
 10
0.0
 20
-0.0079237196180556
 10
-0.0041341145833333
 20
-0.0079237196180556
 10
-0.0075792100694444
 20
-0.0044786241319444
 10
-0.0075792100694444
 20
0.0
 10
-0.0075792100694444
 20
0.0037896050347222
 10
-0.0041341145833333
 20
0.0079237196180556
 10
0.0
 20
0.0079237196180556
 10
0.0044786241319444
 20
0.0079237196180556
 10
0.0075792100694444
 20
0.0037896050347222
 10
0.0075792100694444
 20
0.0
 97
        0
 75
     0
 76
     1
 98
        1
 10
0.0
 20
0.0
  0
ENDBLK
  5
E1
100
AcDbEntity
  8
LAYER_3
100
AcDbBlockEnd
  0
BLOCK
  5
E8
100
AcDbEntity
  8
LAYER_3
 62
     7
100
AcDbBlockBegin
  2
AI9-BLK5
 70
     0
 10
0.0
 20
0.0
 30
0.0
  3
AI9-BLK5
  1

  0
HATCH
  5
FA
100
AcDbEntity
  8
LAYER_3
 62
     7
100
AcDbHatch
 10
0.0
 20
0.0
 30
0.0
210
0.0
220
0.0
230
1.0
  2
SOLID
 70
     1
 71
     0
 91
        1
 92
        3
 72
     0
 73
     1
 93
        3
 10
-18.349439832899304
 20
9.5063103569878464
 10
-18.349439832899304
 20
7.9822001139322909
 10
-13.776764594184026
 20
8.7444274902343739
 97
        0
 75
     0
 76
     1
 98
        1
 10
0.0
 20
0.0
  0
HATCH
  5
F9
100
AcDbEntity
  8
LAYER_3
 62
     7
100
AcDbHatch
 10
0.0
 20
0.0
 30
0.0
210
0.0
220
0.0
230
1.0
  2
SOLID
 70
     1
 71
     0
 91
        1
 92
        3
 72
     0
 73
     1
 93
        3
 10
-0.9723782009548611
 20
9.5063103569878464
 10
-0.9723782009548611
 20
7.9822001139322909
 10
-5.5453979492187493
 20
8.7444274902343739
 97
        0
 75
     0
 76
     1
 98
        1
 10
0.0
 20
0.0
  0
MTEXT
  5
F8
100
AcDbEntity
  8
LAYER_3
 62
     7
100
AcDbMText
 10
5.886462
 20
11.03095
 30
0.0
 40
4.57286
 41
0.0
 71
     1
 72
     2
  1
\fMyriad Roman|b0|i0;0.3240
  7
STD
210
0.0
220
0.0
230
1.0
 11
1.000001
 21
0.0
 31
0.0
  0
INSERT
  5
F4
100
AcDbEntity
  8
LAYER_3
 62
     7
100
AcDbBlockReference
  2
AI9-BLK8
 10
-13.776592
 20
-13.30961
 30
0.0
  0
INSERT
  5
EF
100
AcDbEntity
  8
LAYER_3
 62
     7
100
AcDbBlockReference
  2
AI9-BLK7
 10
-5.545742
 20
-13.30961
 30
0.0
  0
INSERT
  5
EA
100
AcDbEntity
  8
LAYER_3
 62
     7
100
AcDbBlockReference
  2
AI9-BLK6
 10
-5.545742
 20
8.744514
 30
0.0
  0
ENDBLK
  5
FB
100
AcDbEntity
  8
LAYER_3
100
AcDbBlockEnd
  0
BLOCK
  5
EB
100
AcDbEntity
  8
LAYER_3
 62
     7
100
AcDbBlockBegin
  2
AI9-BLK6
 70
     0
 10
0.0
 20
0.0
 30
0.0
  3
AI9-BLK6
  1

  0
HATCH
  5
EC
100
AcDbEntity
  8
LAYER_3
 62
     7
100
AcDbHatch
 10
0.0
 20
0.0
 30
0.0
210
0.0
220
0.0
230
1.0
  2
SOLID
 70
     1
 71
     0
 91
        1
 92
        1
 93
        1
 72
     4
 94
        3
 73
     0
 74
     0
 95
       17
 96
       13
 40
0.0
 40
0.0
 40
0.0
 40
0.0
 40
1.0
 40
1.0
 40
1.0
 40
2.0
 40
2.0
 40
2.0
 40
3.0
 40
3.0
 40
3.0
 40
4.0
 40
4.0
 40
4.0
 40
4.0
 10
0.0079237196180556
 20
-0.0000861273871528
 10
0.0079237196180556
 20
-0.0040479871961806
 10
0.0044786241319444
 20
-0.0078375922309028
 10
0.0003445095486111
 20
-0.0078375922309028
 10
-0.0041341145833333
 20
-0.0078375922309028
 10
-0.0079237196180556
 20
-0.0040479871961806
 10
-0.0079237196180556
 20
-0.0000861273871528
 10
-0.0079237196180556
 20
0.0042202419704861
 10
-0.0041341145833333
 20
0.0078375922309028
 10
0.0003445095486111
 20
0.0078375922309028
 10
0.0044786241319444
 20
0.0078375922309028
 10
0.0079237196180556
 20
0.0042202419704861
 10
0.0079237196180556
 20
-0.0000861273871528
 97
        0
 75
     0
 76
     1
 98
        1
 10
0.0
 20
0.0
  0
ENDBLK
  5
ED
100
AcDbEntity
  8
LAYER_3
100
AcDbBlockEnd
  0
BLOCK
  5
F0
100
AcDbEntity
  8
LAYER_3
 62
     7
100
AcDbBlockBegin
  2
AI9-BLK7
 70
     0
 10
0.0
 20
0.0
 30
0.0
  3
AI9-BLK7
  1

  0
HATCH
  5
F1
100
AcDbEntity
  8
LAYER_3
 62
     7
100
AcDbHatch
 10
0.0
 20
0.0
 30
0.0
210
0.0
220
0.0
230
1.0
  2
SOLID
 70
     1
 71
     0
 91
        1
 92
        1
 93
        1
 72
     4
 94
        3
 73
     0
 74
     0
 95
       17
 96
       13
 40
0.0
 40
0.0
 40
0.0
 40
0.0
 40
1.0
 40
1.0
 40
1.0
 40
2.0
 40
2.0
 40
2.0
 40
3.0
 40
3.0
 40
3.0
 40
4.0
 40
4.0
 40
4.0
 40
4.0
 10
0.0079237196180556
 20
0.0000861273871528
 10
0.0079237196180556
 20
-0.0040479871961806
 10
0.0044786241319444
 20
-0.0076653374565972
 10
0.0003445095486111
 20
-0.0076653374565972
 10
-0.0041341145833333
 20
-0.0076653374565972
 10
-0.0079237196180556
 20
-0.0040479871961806
 10
-0.0079237196180556
 20
0.0000861273871528
 10
-0.0079237196180556
 20
0.0045647515190972
 10
-0.0041341145833333
 20
0.0076653374565972
 10
0.0003445095486111
 20
0.0076653374565972
 10
0.0044786241319444
 20
0.0076653374565972
 10
0.0079237196180556
 20
0.0045647515190972
 10
0.0079237196180556
 20
0.0000861273871528
 97
        0
 75
     0
 76
     1
 98
        1
 10
0.0
 20
0.0
  0
ENDBLK
  5
F2
100
AcDbEntity
  8
LAYER_3
100
AcDbBlockEnd
  0
BLOCK
  5
F5
100
AcDbEntity
  8
LAYER_3
 62
     7
100
AcDbBlockBegin
  2
AI9-BLK8
 70
     0
 10
0.0
 20
0.0
 30
0.0
  3
AI9-BLK8
  1

  0
HATCH
  5
F6
100
AcDbEntity
  8
LAYER_3
 62
     7
100
AcDbHatch
 10
0.0
 20
0.0
 30
0.0
210
0.0
220
0.0
230
1.0
  2
SOLID
 70
     1
 71
     0
 91
        1
 92
        1
 93
        1
 72
     4
 94
        3
 73
     0
 74
     0
 95
       17
 96
       13
 40
0.0
 40
0.0
 40
0.0
 40
0.0
 40
1.0
 40
1.0
 40
1.0
 40
2.0
 40
2.0
 40
2.0
 40
3.0
 40
3.0
 40
3.0
 40
4.0
 40
4.0
 40
4.0
 40
4.0
 10
0.00775146484375
 20
0.0000861273871528
 10
0.00775146484375
 20
-0.0040479871961806
 10
0.0043063693576389
 20
-0.0076653374565972
 10
-0.0001722547743056
 20
-0.0076653374565972
 10
-0.00465087890625
 20
-0.0076653374565972
 10
-0.00775146484375
 20
-0.0040479871961806
 10
-0.00775146484375
 20
0.0000861273871528
 10
-0.00775146484375
 20
0.0045647515190972
 10
-0.00465087890625
 20
0.0076653374565972
 10
-0.0001722547743056
 20
0.0076653374565972
 10
0.0043063693576389
 20
0.0076653374565972
 10
0.00775146484375
 20
0.0045647515190972
 10
0.00775146484375
 20
0.0000861273871528
 97
        0
 75
     0
 76
     1
 98
        1
 10
0.0
 20
0.0
  0
ENDBLK
  5
F7
100
AcDbEntity
  8
LAYER_3
100
AcDbBlockEnd
  0
BLOCK
  5
FE
100
AcDbEntity
  8
LAYER_3
 62
     7
100
AcDbBlockBegin
  2
AI9-BLK9
 70
     0
 10
0.0
 20
0.0
 30
0.0
  3
AI9-BLK9
  1

  0
HATCH
  5
110
100
AcDbEntity
  8
LAYER_3
 62
     7
100
AcDbHatch
 10
0.0
 20
0.0
 30
0.0
210
0.0
220
0.0
230
1.0
  2
SOLID
 70
     1
 71
     0
 91
        1
 92
        3
 72
     0
 73
     1
 93
        3
 10
26.322596571180554
 20
10.472745768229165
 10
27.846362304687496
 20
10.472745768229165
 10
27.083618164062496
 20
5.899553765190972
 97
        0
 75
     0
 76
     1
 98
        1
 10
0.0
 20
0.0
  0
HATCH
  5
10F
100
AcDbEntity
  8
LAYER_3
 62
     7
100
AcDbHatch
 10
0.0
 20
0.0
 30
0.0
210
0.0
220
0.0
230
1.0
  2
SOLID
 70
     1
 71
     0
 91
        1
 92
        3
 72
     0
 73
     1
 93
        3
 10
26.322596571180554
 20
-6.6500678168402771
 10
27.846362304687496
 20
-6.6500678168402771
 10
27.083618164062496
 20
-2.0772203233506943
 97
        0
 75
     0
 76
     1
 98
        1
 10
0.0
 20
0.0
  0
MTEXT
  5
10E
100
AcDbEntity
  8
LAYER_3
 62
     7
100
AcDbMText
 10
0.408588
 20
-8.936221
 30
0.0
 40
4.57286
 41
0.0
 71
     1
 72
     2
  1
\fMyriad Roman|b0|i0;0.3140
  7
STD
210
0.0
220
0.0
230
1.0
 11
1.000001
 21
0.0
 31
0.0
  0
INSERT
  5
10A
100
AcDbEntity
  8
LAYER_3
 62
     7
100
AcDbBlockReference
  2
AI9-BLK12
 10
-31.649403
 20
5.899812
 30
0.0
  0
INSERT
  5
105
100
AcDbEntity
  8
LAYER_3
 62
     7
100
AcDbBlockReference
  2
AI9-BLK11
 10
-31.649403
 20
-2.077479
 30
0.0
  0
INSERT
  5
100
100
AcDbEntity
  8
LAYER_3
 62
     7
100
AcDbBlockReference
  2
AI9-BLK10
 10
27.084479
 20
-2.077479
 30
0.0
  0
ENDBLK
  5
111
100
AcDbEntity
  8
LAYER_3
100
AcDbBlockEnd
  0
BLOCK
  5
101
100
AcDbEntity
  8
LAYER_3
 62
     7
100
AcDbBlockBegin
  2
AI9-BLK10
 70
     0
 10
0.0
 20
0.0
 30
0.0
  3
AI9-BLK10
  1

  0
HATCH
  5
102
100
AcDbEntity
  8
LAYER_3
 62
     7
100
AcDbHatch
 10
0.0
 20
0.0
 30
0.0
210
0.0
220
0.0
230
1.0
  2
SOLID
 70
     1
 71
     0
 91
        1
 92
        1
 93
        1
 72
     4
 94
        3
 73
     0
 74
     0
 95
       17
 96
       13
 40
0.0
 40
0.0
 40
0.0
 40
0.0
 40
1.0
 40
1.0
 40
1.0
 40
2.0
 40
2.0
 40
2.0
 40
3.0
 40
3.0
 40
3.0
 40
4.0
 40
4.0
 40
4.0
 40
4.0
 10
0.0080959743923611
 20
0.0002583821614583
 10
0.0080959743923611
 20
-0.0040479871961806
 10
0.00465087890625
 20
-0.0076653374565972
 10
-0.0008612738715278
 20
-0.0076653374565972
 10
-0.0043063693576389
 20
-0.0076653374565972
 10
-0.0080959743923611
 20
-0.0040479871961806
 10
-0.0080959743923611
 20
0.0002583821614583
 10
-0.0080959743923611
 20
0.0045647515190972
 10
-0.0043063693576389
 20
0.0076653374565972
 10
-0.0008612738715278
 20
0.0076653374565972
 10
0.00465087890625
 20
0.0076653374565972
 10
0.0080959743923611
 20
0.0045647515190972
 10
0.0080959743923611
 20
0.0002583821614583
 97
        0
 75
     0
 76
     1
 98
        1
 10
0.0
 20
0.0
  0
ENDBLK
  5
103
100
AcDbEntity
  8
LAYER_3
100
AcDbBlockEnd
  0
BLOCK
  5
106
100
AcDbEntity
  8
LAYER_3
 62
     7
100
AcDbBlockBegin
  2
AI9-BLK11
 70
     0
 10
0.0
 20
0.0
 30
0.0
  3
AI9-BLK11
  1

  0
HATCH
  5
107
100
AcDbEntity
  8
LAYER_3
 62
     7
100
AcDbHatch
 10
0.0
 20
0.0
 30
0.0
210
0.0
220
0.0
230
1.0
  2
SOLID
 70
     1
 71
     0
 91
        1
 92
        1
 93
        1
 72
     4
 94
        3
 73
     0
 74
     0
 95
       17
 96
       13
 40
0.0
 40
0.0
 40
0.0
 40
0.0
 40
1.0
 40
1.0
 40
1.0
 40
2.0
 40
2.0
 40
2.0
 40
3.0
 40
3.0
 40
3.0
 40
4.0
 40
4.0
 40
4.0
 40
4.0
 10
0.0075792100694444
 20
0.0002583821614583
 10
0.0075792100694444
 20
-0.0040479871961806
 10
0.0041341145833333
 20
-0.0076653374565972
 10
0.0
 20
-0.0076653374565972
 10
-0.0044786241319444
 20
-0.0076653374565972
 10
-0.0075792100694444
 20
-0.0040479871961806
 10
-0.0075792100694444
 20
0.0002583821614583
 10
-0.0075792100694444
 20
0.0045647515190972
 10
-0.0044786241319444
 20
0.0076653374565972
 10
0.0
 20
0.0076653374565972
 10
0.0041341145833333
 20
0.0076653374565972
 10
0.0075792100694444
 20
0.0045647515190972
 10
0.0075792100694444
 20
0.0002583821614583
 97
        0
 75
     0
 76
     1
 98
        1
 10
0.0
 20
0.0
  0
ENDBLK
  5
108
100
AcDbEntity
  8
LAYER_3
100
AcDbBlockEnd
  0
BLOCK
  5
10B
100
AcDbEntity
  8
LAYER_3
 62
     7
100
AcDbBlockBegin
  2
AI9-BLK12
 70
     0
 10
0.0
 20
0.0
 30
0.0
  3
AI9-BLK12
  1

  0
HATCH
  5
10C
100
AcDbEntity
  8
LAYER_3
 62
     7
100
AcDbHatch
 10
0.0
 20
0.0
 30
0.0
210
0.0
220
0.0
230
1.0
  2
SOLID
 70
     1
 71
     0
 91
        1
 92
        1
 93
        1
 72
     4
 94
        3
 73
     0
 74
     0
 95
       17
 96
       13
 40
0.0
 40
0.0
 40
0.0
 40
0.0
 40
1.0
 40
1.0
 40
1.0
 40
2.0
 40
2.0
 40
2.0
 40
3.0
 40
3.0
 40
3.0
 40
4.0
 40
4.0
 40
4.0
 40
4.0
 10
0.0075792100694444
 20
-0.0002583821614583
 10
0.0075792100694444
 20
-0.0045647515190972
 10
0.0041341145833333
 20
-0.0078375922309028
 10
0.0
 20
-0.0078375922309028
 10
-0.0044786241319444
 20
-0.0078375922309028
 10
-0.0075792100694444
 20
-0.0045647515190972
 10
-0.0075792100694444
 20
-0.0002583821614583
 10
-0.0075792100694444
 20
0.0042202419704861
 10
-0.0044786241319444
 20
0.0078375922309028
 10
0.0
 20
0.0078375922309028
 10
0.0041341145833333
 20
0.0078375922309028
 10
0.0075792100694444
 20
0.0042202419704861
 10
0.0075792100694444
 20
-0.0002583821614583
 97
        0
 75
     0
 76
     1
 98
        1
 10
0.0
 20
0.0
  0
ENDBLK
  5
10D
100
AcDbEntity
  8
LAYER_3
100
AcDbBlockEnd
  0
BLOCK
  5
114
100
AcDbEntity
  8
LAYER_3
 62
     7
100
AcDbBlockBegin
  2
AI9-BLK13
 70
     0
 10
0.0
 20
0.0
 30
0.0
  3
AI9-BLK13
  1

  0
HATCH
  5
126
100
AcDbEntity
  8
LAYER_3
 62
     7
100
AcDbHatch
 10
0.0
 20
0.0
 30
0.0
210
0.0
220
0.0
230
1.0
  2
SOLID
 70
     1
 71
     0
 91
        1
 92
        3
 72
     0
 73
     1
 93
        3
 10
14.459582519531249
 20
8.4789828830295129
 10
15.983692762586804
 20
8.4789828830295129
 10
15.221637641059026
 20
3.905790879991319
 97
        0
 75
     0
 76
     1
 98
        1
 10
0.0
 20
0.0
  0
HATCH
  5
125
100
AcDbEntity
  8
LAYER_3
 62
     7
100
AcDbHatch
 10
0.0
 20
0.0
 30
0.0
210
0.0
220
0.0
230
1.0
  2
SOLID
 70
     1
 71
     0
 91
        1
 92
        3
 72
     0
 73
     1
 93
        3
 10
14.459582519531249
 20
-4.6552714029947913
 10
15.983692762586804
 20
-4.6552714029947913
 10
15.221637641059026
 20
-0.0827684190538194
 97
        0
 75
     0
 76
     1
 98
        1
 10
0.0
 20
0.0
  0
MTEXT
  5
124
100
AcDbEntity
  8
LAYER_3
 62
     7
100
AcDbMText
 10
-11.453392
 20
-6.942113
 30
0.0
 40
4.57286
 41
0.0
 71
     1
 72
     2
  1
\fMyriad Roman|b0|i0;0.1570
  7
STD
210
0.0
220
0.0
230
1.0
 11
1.000001
 21
0.0
 31
0.0
  0
INSERT
  5
120
100
AcDbEntity
  8
LAYER_3
 62
     7
100
AcDbBlockReference
  2
AI9-BLK16
 10
-19.786734
 20
3.905877
 30
0.0
  0
INSERT
  5
11B
100
AcDbEntity
  8
LAYER_3
 62
     7
100
AcDbBlockReference
  2
AI9-BLK15
 10
-19.786734
 20
-0.082596
 30
0.0
  0
INSERT
  5
116
100
AcDbEntity
  8
LAYER_3
 62
     7
100
AcDbBlockReference
  2
AI9-BLK14
 10
15.221638
 20
-0.082596
 30
0.0
  0
ENDBLK
  5
127
100
AcDbEntity
  8
LAYER_3
100
AcDbBlockEnd
  0
BLOCK
  5
117
100
AcDbEntity
  8
LAYER_3
 62
     7
100
AcDbBlockBegin
  2
AI9-BLK14
 70
     0
 10
0.0
 20
0.0
 30
0.0
  3
AI9-BLK14
  1

  0
HATCH
  5
118
100
AcDbEntity
  8
LAYER_3
 62
     7
100
AcDbHatch
 10
0.0
 20
0.0
 30
0.0
210
0.0
220
0.0
230
1.0
  2
SOLID
 70
     1
 71
     0
 91
        1
 92
        1
 93
        1
 72
     4
 94
        3
 73
     0
 74
     0
 95
       17
 96
       13
 40
0.0
 40
0.0
 40
0.0
 40
0.0
 40
1.0
 40
1.0
 40
1.0
 40
2.0
 40
2.0
 40
2.0
 40
3.0
 40
3.0
 40
3.0
 40
4.0
 40
4.0
 40
4.0
 40
4.0
 10
0.0079237196180556
 20
-0.0001722547743056
 10
0.0079237196180556
 20
-0.0044786241319444
 10
0.0044786241319444
 20
-0.00775146484375
 10
0.0
 20
-0.00775146484375
 10
-0.0041341145833333
 20
-0.00775146484375
 10
-0.0079237196180556
 20
-0.0044786241319444
 10
-0.0079237196180556
 20
-0.0001722547743056
 10
-0.0079237196180556
 20
0.0041341145833333
 10
-0.0041341145833333
 20
0.00775146484375
 10
0.0
 20
0.00775146484375
 10
0.0044786241319444
 20
0.00775146484375
 10
0.0079237196180556
 20
0.0041341145833333
 10
0.0079237196180556
 20
-0.0001722547743056
 97
        0
 75
     0
 76
     1
 98
        1
 10
0.0
 20
0.0
  0
ENDBLK
  5
119
100
AcDbEntity
  8
LAYER_3
100
AcDbBlockEnd
  0
BLOCK
  5
11C
100
AcDbEntity
  8
LAYER_3
 62
     7
100
AcDbBlockBegin
  2
AI9-BLK15
 70
     0
 10
0.0
 20
0.0
 30
0.0
  3
AI9-BLK15
  1

  0
HATCH
  5
11D
100
AcDbEntity
  8
LAYER_3
 62
     7
100
AcDbHatch
 10
0.0
 20
0.0
 30
0.0
210
0.0
220
0.0
230
1.0
  2
SOLID
 70
     1
 71
     0
 91
        1
 92
        1
 93
        1
 72
     4
 94
        3
 73
     0
 74
     0
 95
       17
 96
       13
 40
0.0
 40
0.0
 40
0.0
 40
0.0
 40
1.0
 40
1.0
 40
1.0
 40
2.0
 40
2.0
 40
2.0
 40
3.0
 40
3.0
 40
3.0
 40
4.0
 40
4.0
 40
4.0
 40
4.0
 10
0.0079237196180556
 20
-0.0001722547743056
 10
0.0079237196180556
 20
-0.0044786241319444
 10
0.0044786241319444
 20
-0.00775146484375
 10
0.0003445095486111
 20
-0.00775146484375
 10
-0.0041341145833333
 20
-0.00775146484375
 10
-0.0079237196180556
 20
-0.0044786241319444
 10
-0.0079237196180556
 20
-0.0001722547743056
 10
-0.0079237196180556
 20
0.0041341145833333
 10
-0.0041341145833333
 20
0.00775146484375
 10
0.0003445095486111
 20
0.00775146484375
 10
0.0044786241319444
 20
0.00775146484375
 10
0.0079237196180556
 20
0.0041341145833333
 10
0.0079237196180556
 20
-0.0001722547743056
 97
        0
 75
     0
 76
     1
 98
        1
 10
0.0
 20
0.0
  0
ENDBLK
  5
11E
100
AcDbEntity
  8
LAYER_3
100
AcDbBlockEnd
  0
BLOCK
  5
121
100
AcDbEntity
  8
LAYER_3
 62
     7
100
AcDbBlockBegin
  2
AI9-BLK16
 70
     0
 10
0.0
 20
0.0
 30
0.0
  3
AI9-BLK16
  1

  0
HATCH
  5
122
100
AcDbEntity
  8
LAYER_3
 62
     7
100
AcDbHatch
 10
0.0
 20
0.0
 30
0.0
210
0.0
220
0.0
230
1.0
  2
SOLID
 70
     1
 71
     0
 91
        1
 92
        1
 93
        1
 72
     4
 94
        3
 73
     0
 74
     0
 95
       17
 96
       13
 40
0.0
 40
0.0
 40
0.0
 40
0.0
 40
1.0
 40
1.0
 40
1.0
 40
2.0
 40
2.0
 40
2.0
 40
3.0
 40
3.0
 40
3.0
 40
4.0
 40
4.0
 40
4.0
 40
4.0
 10
0.0079237196180556
 20
-0.0000861273871528
 10
0.0079237196180556
 20
-0.0040479871961806
 10
0.0044786241319444
 20
-0.0078375922309028
 10
0.0003445095486111
 20
-0.0078375922309028
 10
-0.0041341145833333
 20
-0.0078375922309028
 10
-0.0079237196180556
 20
-0.0040479871961806
 10
-0.0079237196180556
 20
-0.0000861273871528
 10
-0.0079237196180556
 20
0.0042202419704861
 10
-0.0041341145833333
 20
0.0078375922309028
 10
0.0003445095486111
 20
0.0078375922309028
 10
0.0044786241319444
 20
0.0078375922309028
 10
0.0079237196180556
 20
0.0042202419704861
 10
0.0079237196180556
 20
-0.0000861273871528
 97
        0
 75
     0
 76
     1
 98
        1
 10
0.0
 20
0.0
  0
ENDBLK
  5
123
100
AcDbEntity
  8
LAYER_3
100
AcDbBlockEnd
  0
BLOCK
  5
12A
100
AcDbEntity
  8
LAYER_3
 62
     7
100
AcDbBlockBegin
  2
AI9-BLK17
 70
     0
 10
0.0
 20
0.0
 30
0.0
  3
AI9-BLK17
  1

  0
HATCH
  5
13C
100
AcDbEntity
  8
LAYER_3
 62
     7
100
AcDbHatch
 10
0.0
 20
0.0
 30
0.0
210
0.0
220
0.0
230
1.0
  2
SOLID
 70
     1
 71
     0
 91
        1
 92
        3
 72
     0
 73
     1
 93
        3
 10
-16.825587972005206
 20
11.223690456814236
 10
-16.825587972005206
 20
9.6994079589843736
 10
-12.252568223741319
 20
10.461463080512152
 97
        0
 75
     0
 76
     1
 98
        1
 10
0.0
 20
0.0
  0
HATCH
  5
13B
100
AcDbEntity
  8
LAYER_3
 62
     7
100
AcDbHatch
 10
0.0
 20
0.0
 30
0.0
210
0.0
220
0.0
230
1.0
  2
SOLID
 70
     1
 71
     0
 91
        1
 92
        3
 72
     0
 73
     1
 93
        3
 10
-2.4970913357204858
 20
11.223690456814236
 10
-2.4970913357204858
 20
9.6994079589843736
 10
-7.0697665744357634
 20
10.461463080512152
 97
        0
 75
     0
 76
     1
 98
        1
 10
0.0
 20
0.0
  0
MTEXT
  5
13A
100
AcDbEntity
  8
LAYER_3
 62
     7
100
AcDbMText
 10
4.362438
 20
12.747985
 30
0.0
 40
4.57286
 41
0.0
 71
     1
 72
     2
  1
\fMyriad Roman|b0|i0;0.2040
  7
STD
210
0.0
220
0.0
230
1.0
 11
1.000001
 21
0.0
 31
0.0
  0
INSERT
  5
136
100
AcDbEntity
  8
LAYER_3
 62
     7
100
AcDbBlockReference
  2
AI9-BLK20
 10
-12.252396
 20
-15.026645
 30
0.0
  0
INSERT
  5
131
100
AcDbEntity
  8
LAYER_3
 62
     7
100
AcDbBlockReference
  2
AI9-BLK19
 10
-7.069939
 20
-15.026645
 30
0.0
  0
INSERT
  5
12C
100
AcDbEntity
  8
LAYER_3
 62
     7
100
AcDbBlockReference
  2
AI9-BLK18
 10
-7.069939
 20
10.461463
 30
0.0
  0
ENDBLK
  5
13D
100
AcDbEntity
  8
LAYER_3
100
AcDbBlockEnd
  0
BLOCK
  5
12D
100
AcDbEntity
  8
LAYER_3
 62
     7
100
AcDbBlockBegin
  2
AI9-BLK18
 70
     0
 10
0.0
 20
0.0
 30
0.0
  3
AI9-BLK18
  1

  0
HATCH
  5
12E
100
AcDbEntity
  8
LAYER_3
 62
     7
100
AcDbHatch
 10
0.0
 20
0.0
 30
0.0
210
0.0
220
0.0
230
1.0
  2
SOLID
 70
     1
 71
     0
 91
        1
 92
        1
 93
        1
 72
     4
 94
        3
 73
     0
 74
     0
 95
       17
 96
       13
 40
0.0
 40
0.0
 40
0.0
 40
0.0
 40
1.0
 40
1.0
 40
1.0
 40
2.0
 40
2.0
 40
2.0
 40
3.0
 40
3.0
 40
3.0
 40
4.0
 40
4.0
 40
4.0
 40
4.0
 10
0.00775146484375
 20
0.0
 10
0.00775146484375
 20
-0.0043063693576389
 10
0.0043063693576389
 20
-0.00775146484375
 10
0.0001722547743056
 20
-0.00775146484375
 10
-0.0039618598090278
 20
-0.00775146484375
 10
-0.00775146484375
 20
-0.0043063693576389
 10
-0.00775146484375
 20
0.0
 10
-0.00775146484375
 20
0.0043063693576389
 10
-0.0039618598090278
 20
0.00775146484375
 10
0.0001722547743056
 20
0.00775146484375
 10
0.0043063693576389
 20
0.00775146484375
 10
0.00775146484375
 20
0.0043063693576389
 10
0.00775146484375
 20
0.0
 97
        0
 75
     0
 76
     1
 98
        1
 10
0.0
 20
0.0
  0
ENDBLK
  5
12F
100
AcDbEntity
  8
LAYER_3
100
AcDbBlockEnd
  0
BLOCK
  5
132
100
AcDbEntity
  8
LAYER_3
 62
     7
100
AcDbBlockBegin
  2
AI9-BLK19
 70
     0
 10
0.0
 20
0.0
 30
0.0
  3
AI9-BLK19
  1

  0
HATCH
  5
133
100
AcDbEntity
  8
LAYER_3
 62
     7
100
AcDbHatch
 10
0.0
 20
0.0
 30
0.0
210
0.0
220
0.0
230
1.0
  2
SOLID
 70
     1
 71
     0
 91
        1
 92
        1
 93
        1
 72
     4
 94
        3
 73
     0
 74
     0
 95
       17
 96
       13
 40
0.0
 40
0.0
 40
0.0
 40
0.0
 40
1.0
 40
1.0
 40
1.0
 40
2.0
 40
2.0
 40
2.0
 40
3.0
 40
3.0
 40
3.0
 40
4.0
 40
4.0
 40
4.0
 40
4.0
 10
0.00775146484375
 20
-0.0000861273871528
 10
0.00775146484375
 20
-0.0043924967447917
 10
0.0043063693576389
 20
-0.0076653374565972
 10
0.0001722547743056
 20
-0.0076653374565972
 10
-0.0039618598090278
 20
-0.0076653374565972
 10
-0.00775146484375
 20
-0.0043924967447917
 10
-0.00775146484375
 20
-0.0000861273871528
 10
-0.00775146484375
 20
0.0042202419704861
 10
-0.0039618598090278
 20
0.0076653374565972
 10
0.0001722547743056
 20
0.0076653374565972
 10
0.0043063693576389
 20
0.0076653374565972
 10
0.00775146484375
 20
0.0042202419704861
 10
0.00775146484375
 20
-0.0000861273871528
 97
        0
 75
     0
 76
     1
 98
        1
 10
0.0
 20
0.0
  0
ENDBLK
  5
134
100
AcDbEntity
  8
LAYER_3
100
AcDbBlockEnd
  0
BLOCK
  5
137
100
AcDbEntity
  8
LAYER_3
 62
     7
100
AcDbBlockBegin
  2
AI9-BLK20
 70
     0
 10
0.0
 20
0.0
 30
0.0
  3
AI9-BLK20
  1

  0
HATCH
  5
138
100
AcDbEntity
  8
LAYER_3
 62
     7
100
AcDbHatch
 10
0.0
 20
0.0
 30
0.0
210
0.0
220
0.0
230
1.0
  2
SOLID
 70
     1
 71
     0
 91
        1
 92
        1
 93
        1
 72
     4
 94
        3
 73
     0
 74
     0
 95
       17
 96
       13
 40
0.0
 40
0.0
 40
0.0
 40
0.0
 40
1.0
 40
1.0
 40
1.0
 40
2.0
 40
2.0
 40
2.0
 40
3.0
 40
3.0
 40
3.0
 40
4.0
 40
4.0
 40
4.0
 40
4.0
 10
0.00775146484375
 20
-0.0000861273871528
 10
0.00775146484375
 20
-0.0043924967447917
 10
0.0039618598090278
 20
-0.0076653374565972
 10
-0.0001722547743056
 20
-0.0076653374565972
 10
-0.0043063693576389
 20
-0.0076653374565972
 10
-0.00775146484375
 20
-0.0043924967447917
 10
-0.00775146484375
 20
-0.0000861273871528
 10
-0.00775146484375
 20
0.0042202419704861
 10
-0.0043063693576389
 20
0.0076653374565972
 10
-0.0001722547743056
 20
0.0076653374565972
 10
0.0039618598090278
 20
0.0076653374565972
 10
0.00775146484375
 20
0.0042202419704861
 10
0.00775146484375
 20
-0.0000861273871528
 97
        0
 75
     0
 76
     1
 98
        1
 10
0.0
 20
0.0
  0
ENDBLK
  5
139
100
AcDbEntity
  8
LAYER_3
100
AcDbBlockEnd
  0
BLOCK
  5
140
100
AcDbEntity
  8
LAYER_3
 62
     7
100
AcDbBlockBegin
  2
AI9-BLK21
 70
     0
 10
0.0
 20
0.0
 30
0.0
  3
AI9-BLK21
  1

  0
HATCH
  5
152
100
AcDbEntity
  8
LAYER_3
 62
     7
100
AcDbHatch
 10
0.0
 20
0.0
 30
0.0
210
0.0
220
0.0
230
1.0
  2
SOLID
 70
     1
 71
     0
 91
        1
 92
        3
 72
     0
 73
     1
 93
        3
 10
17.656286621093749
 20
-7.1223904079861109
 10
17.656286621093749
 20
-8.6465006510416664
 10
13.08326687282986
 20
-7.8844455295138882
 97
        0
 75
     0
 76
     1
 98
        1
 10
0.0
 20
0.0
  0
HATCH
  5
151
100
AcDbEntity
  8
LAYER_3
 62
     7
100
AcDbHatch
 10
0.0
 20
0.0
 30
0.0
210
0.0
220
0.0
230
1.0
  2
SOLID
 70
     1
 71
     0
 91
        1
 92
        3
 72
     0
 73
     1
 93
        3
 10
3.6836683485243054
 20
-7.1223904079861109
 10
3.6836683485243054
 20
-8.6465006510416664
 10
8.2566880967881939
 20
-7.8844455295138882
 97
        0
 75
     0
 76
     1
 98
        1
 10
0.0
 20
0.0
  0
MTEXT
  5
150
100
AcDbEntity
  8
LAYER_3
 62
     7
100
AcDbMText
 10
-22.229306
 20
-5.59844
 30
0.0
 40
4.57286
 41
0.0
 71
     1
 72
     2
  1
\fMyriad Roman|b0|i0;0.1900
  7
STD
210
0.0
220
0.0
230
1.0
 11
1.000001
 21
0.0
 31
0.0
  0
INSERT
  5
14C
100
AcDbEntity
  8
LAYER_3
 62
     7
100
AcDbBlockReference
  2
AI9-BLK24
 10
13.083267
 20
12.449542
 30
0.0
  0
INSERT
  5
147
100
AcDbEntity
  8
LAYER_3
 62
     7
100
AcDbBlockReference
  2
AI9-BLK23
 10
8.256344
 20
12.449542
 30
0.0
  0
INSERT
  5
142
100
AcDbEntity
  8
LAYER_3
 62
     7
100
AcDbBlockReference
  2
AI9-BLK22
 10
8.256344
 20
-7.884618
 30
0.0
  0
ENDBLK
  5
153
100
AcDbEntity
  8
LAYER_3
100
AcDbBlockEnd
  0
BLOCK
  5
143
100
AcDbEntity
  8
LAYER_3
 62
     7
100
AcDbBlockBegin
  2
AI9-BLK22
 70
     0
 10
0.0
 20
0.0
 30
0.0
  3
AI9-BLK22
  1

  0
HATCH
  5
144
100
AcDbEntity
  8
LAYER_3
 62
     7
100
AcDbHatch
 10
0.0
 20
0.0
 30
0.0
210
0.0
220
0.0
230
1.0
  2
SOLID
 70
     1
 71
     0
 91
        1
 92
        1
 93
        1
 72
     4
 94
        3
 73
     0
 74
     0
 95
       17
 96
       13
 40
0.0
 40
0.0
 40
0.0
 40
0.0
 40
1.0
 40
1.0
 40
1.0
 40
2.0
 40
2.0
 40
2.0
 40
3.0
 40
3.0
 40
3.0
 40
4.0
 40
4.0
 40
4.0
 40
4.0
 10
0.0079237196180556
 20
0.0001722547743056
 10
0.0079237196180556
 20
-0.0039618598090278
 10
0.0044786241319444
 20
-0.0080959743923611
 10
0.0003445095486111
 20
-0.0080959743923611
 10
-0.0041341145833333
 20
-0.0080959743923611
 10
-0.0079237196180556
 20
-0.0039618598090278
 10
-0.0079237196180556
 20
0.0001722547743056
 10
-0.0079237196180556
 20
0.0043063693576389
 10
-0.0041341145833333
 20
0.0080959743923611
 10
0.0003445095486111
 20
0.0080959743923611
 10
0.0044786241319444
 20
0.0080959743923611
 10
0.0079237196180556
 20
0.0043063693576389
 10
0.0079237196180556
 20
0.0001722547743056
 97
        0
 75
     0
 76
     1
 98
        1
 10
0.0
 20
0.0
  0
ENDBLK
  5
145
100
AcDbEntity
  8
LAYER_3
100
AcDbBlockEnd
  0
BLOCK
  5
148
100
AcDbEntity
  8
LAYER_3
 62
     7
100
AcDbBlockBegin
  2
AI9-BLK23
 70
     0
 10
0.0
 20
0.0
 30
0.0
  3
AI9-BLK23
  1

  0
HATCH
  5
149
100
AcDbEntity
  8
LAYER_3
 62
     7
100
AcDbHatch
 10
0.0
 20
0.0
 30
0.0
210
0.0
220
0.0
230
1.0
  2
SOLID
 70
     1
 71
     0
 91
        1
 92
        1
 93
        1
 72
     4
 94
        3
 73
     0
 74
     0
 95
       17
 96
       13
 40
0.0
 40
0.0
 40
0.0
 40
0.0
 40
1.0
 40
1.0
 40
1.0
 40
2.0
 40
2.0
 40
2.0
 40
3.0
 40
3.0
 40
3.0
 40
4.0
 40
4.0
 40
4.0
 40
4.0
 10
0.0079237196180556
 20
0.0
 10
0.0079237196180556
 20
-0.0044786241319444
 10
0.0044786241319444
 20
-0.0079237196180556
 10
0.0003445095486111
 20
-0.0079237196180556
 10
-0.0041341145833333
 20
-0.0079237196180556
 10
-0.0079237196180556
 20
-0.0044786241319444
 10
-0.0079237196180556
 20
0.0
 10
-0.0079237196180556
 20
0.0037896050347222
 10
-0.0041341145833333
 20
0.0079237196180556
 10
0.0003445095486111
 20
0.0079237196180556
 10
0.0044786241319444
 20
0.0079237196180556
 10
0.0079237196180556
 20
0.0037896050347222
 10
0.0079237196180556
 20
0.0
 97
        0
 75
     0
 76
     1
 98
        1
 10
0.0
 20
0.0
  0
ENDBLK
  5
14A
100
AcDbEntity
  8
LAYER_3
100
AcDbBlockEnd
  0
BLOCK
  5
14D
100
AcDbEntity
  8
LAYER_3
 62
     7
100
AcDbBlockBegin
  2
AI9-BLK24
 70
     0
 10
0.0
 20
0.0
 30
0.0
  3
AI9-BLK24
  1

  0
HATCH
  5
14E
100
AcDbEntity
  8
LAYER_3
 62
     7
100
AcDbHatch
 10
0.0
 20
0.0
 30
0.0
210
0.0
220
0.0
230
1.0
  2
SOLID
 70
     1
 71
     0
 91
        1
 92
        1
 93
        1
 72
     4
 94
        3
 73
     0
 74
     0
 95
       17
 96
       13
 40
0.0
 40
0.0
 40
0.0
 40
0.0
 40
1.0
 40
1.0
 40
1.0
 40
2.0
 40
2.0
 40
2.0
 40
3.0
 40
3.0
 40
3.0
 40
4.0
 40
4.0
 40
4.0
 40
4.0
 10
0.0075792100694444
 20
0.0
 10
0.0075792100694444
 20
-0.0044786241319444
 10
0.0044786241319444
 20
-0.0079237196180556
 10
0.0
 20
-0.0079237196180556
 10
-0.0041341145833333
 20
-0.0079237196180556
 10
-0.0075792100694444
 20
-0.0044786241319444
 10
-0.0075792100694444
 20
0.0
 10
-0.0075792100694444
 20
0.0037896050347222
 10
-0.0041341145833333
 20
0.0079237196180556
 10
0.0
 20
0.0079237196180556
 10
0.0044786241319444
 20
0.0079237196180556
 10
0.0075792100694444
 20
0.0037896050347222
 10
0.0075792100694444
 20
0.0
 97
        0
 75
     0
 76
     1
 98
        1
 10
0.0
 20
0.0
  0
ENDBLK
  5
14F
100
AcDbEntity
  8
LAYER_3
100
AcDbBlockEnd
  0
BLOCK
  5
156
100
AcDbEntity
  8
LAYER_3
 62
     7
100
AcDbBlockBegin
  2
AI9-BLK25
 70
     0
 10
0.0
 20
0.0
 30
0.0
  3
AI9-BLK25
  1

  0
HATCH
  5
168
100
AcDbEntity
  8
LAYER_3
 62
     7
100
AcDbHatch
 10
0.0
 20
0.0
 30
0.0
210
0.0
220
0.0
230
1.0
  2
SOLID
 70
     1
 71
     0
 91
        1
 92
        3
 72
     0
 73
     1
 93
        3
 10
-29.730915662977427
 20
-2.2400010850694443
 10
-29.730915662977427
 20
-3.7644558376736108
 10
-25.158068169487844
 20
-3.0020562065972221
 97
        0
 75
     0
 76
     1
 98
        1
 10
0.0
 20
0.0
  0
HATCH
  5
167
100
AcDbEntity
  8
LAYER_3
 62
     7
100
AcDbHatch
 10
0.0
 20
0.0
 30
0.0
210
0.0
220
0.0
230
1.0
  2
SOLID
 70
     1
 71
     0
 91
        1
 92
        3
 72
     0
 73
     1
 93
        3
 10
10.408580864800346
 20
-2.2400010850694443
 10
10.408580864800346
 20
-3.7644558376736108
 10
5.835561116536458
 20
-3.0020562065972221
 97
        0
 75
     0
 76
     1
 98
        1
 10
0.0
 20
0.0
  0
MTEXT
  5
166
100
AcDbEntity
  8
LAYER_3
 62
     7
100
AcDbMText
 10
17.267766
 20
-0.715362
 30
0.0
 40
4.57286
 41
0.0
 71
     1
 72
     2
  1
\fMyriad Roman|b0|i0;1.2200
  7
STD
210
0.0
220
0.0
230
1.0
 11
1.000001
 21
0.0
 31
0.0
  0
INSERT
  5
162
100
AcDbEntity
  8
LAYER_3
 62
     7
100
AcDbBlockReference
  2
AI9-BLK28
 10
-25.158068
 20
7.566808
 30
0.0
  0
INSERT
  5
15D
100
AcDbEntity
  8
LAYER_3
 62
     7
100
AcDbBlockReference
  2
AI9-BLK27
 10
5.835561
 20
7.566808
 30
0.0
  0
INSERT
  5
158
100
AcDbEntity
  8
LAYER_3
 62
     7
100
AcDbBlockReference
  2
AI9-BLK26
 10
5.835561
 20
-3.002228
 30
0.0
  0
ENDBLK
  5
169
100
AcDbEntity
  8
LAYER_3
100
AcDbBlockEnd
  0
BLOCK
  5
159
100
AcDbEntity
  8
LAYER_3
 62
     7
100
AcDbBlockBegin
  2
AI9-BLK26
 70
     0
 10
0.0
 20
0.0
 30
0.0
  3
AI9-BLK26
  1

  0
HATCH
  5
15A
100
AcDbEntity
  8
LAYER_3
 62
     7
100
AcDbHatch
 10
0.0
 20
0.0
 30
0.0
210
0.0
220
0.0
230
1.0
  2
SOLID
 70
     1
 71
     0
 91
        1
 92
        1
 93
        1
 72
     4
 94
        3
 73
     0
 74
     0
 95
       17
 96
       13
 40
0.0
 40
0.0
 40
0.0
 40
0.0
 40
1.0
 40
1.0
 40
1.0
 40
2.0
 40
2.0
 40
2.0
 40
3.0
 40
3.0
 40
3.0
 40
4.0
 40
4.0
 40
4.0
 40
4.0
 10
0.0075792100694444
 20
0.0001722547743056
 10
0.0075792100694444
 20
-0.0043063693576389
 10
0.0044786241319444
 20
-0.0074069552951389
 10
0.0
 20
-0.0074069552951389
 10
-0.0041341145833333
 20
-0.0074069552951389
 10
-0.0075792100694444
 20
-0.0043063693576389
 10
-0.0075792100694444
 20
0.0001722547743056
 10
-0.0075792100694444
 20
0.00465087890625
 10
-0.0041341145833333
 20
0.0074069552951389
 10
0.0
 20
0.0074069552951389
 10
0.0044786241319444
 20
0.0074069552951389
 10
0.0075792100694444
 20
0.00465087890625
 10
0.0075792100694444
 20
0.0001722547743056
 97
        0
 75
     0
 76
     1
 98
        1
 10
0.0
 20
0.0
  0
ENDBLK
  5
15B
100
AcDbEntity
  8
LAYER_3
100
AcDbBlockEnd
  0
BLOCK
  5
15E
100
AcDbEntity
  8
LAYER_3
 62
     7
100
AcDbBlockBegin
  2
AI9-BLK27
 70
     0
 10
0.0
 20
0.0
 30
0.0
  3
AI9-BLK27
  1

  0
HATCH
  5
15F
100
AcDbEntity
  8
LAYER_3
 62
     7
100
AcDbHatch
 10
0.0
 20
0.0
 30
0.0
210
0.0
220
0.0
230
1.0
  2
SOLID
 70
     1
 71
     0
 91
        1
 92
        1
 93
        1
 72
     4
 94
        3
 73
     0
 74
     0
 95
       17
 96
       13
 40
0.0
 40
0.0
 40
0.0
 40
0.0
 40
1.0
 40
1.0
 40
1.0
 40
2.0
 40
2.0
 40
2.0
 40
3.0
 40
3.0
 40
3.0
 40
4.0
 40
4.0
 40
4.0
 40
4.0
 10
0.0075792100694444
 20
0.0
 10
0.0075792100694444
 20
-0.0044786241319444
 10
0.0044786241319444
 20
-0.0079237196180556
 10
0.0
 20
-0.0079237196180556
 10
-0.0041341145833333
 20
-0.0079237196180556
 10
-0.0075792100694444
 20
-0.0044786241319444
 10
-0.0075792100694444
 20
0.0
 10
-0.0075792100694444
 20
0.0037896050347222
 10
-0.0041341145833333
 20
0.0079237196180556
 10
0.0
 20
0.0079237196180556
 10
0.0044786241319444
 20
0.0079237196180556
 10
0.0075792100694444
 20
0.0037896050347222
 10
0.0075792100694444
 20
0.0
 97
        0
 75
     0
 76
     1
 98
        1
 10
0.0
 20
0.0
  0
ENDBLK
  5
160
100
AcDbEntity
  8
LAYER_3
100
AcDbBlockEnd
  0
BLOCK
  5
163
100
AcDbEntity
  8
LAYER_3
 62
     7
100
AcDbBlockBegin
  2
AI9-BLK28
 70
     0
 10
0.0
 20
0.0
 30
0.0
  3
AI9-BLK28
  1

  0
HATCH
  5
164
100
AcDbEntity
  8
LAYER_3
 62
     7
100
AcDbHatch
 10
0.0
 20
0.0
 30
0.0
210
0.0
220
0.0
230
1.0
  2
SOLID
 70
     1
 71
     0
 91
        1
 92
        1
 93
        1
 72
     4
 94
        3
 73
     0
 74
     0
 95
       17
 96
       13
 40
0.0
 40
0.0
 40
0.0
 40
0.0
 40
1.0
 40
1.0
 40
1.0
 40
2.0
 40
2.0
 40
2.0
 40
3.0
 40
3.0
 40
3.0
 40
4.0
 40
4.0
 40
4.0
 40
4.0
 10
0.0079237196180556
 20
0.0
 10
0.0079237196180556
 20
-0.0044786241319444
 10
0.0043063693576389
 20
-0.0079237196180556
 10
0.0
 20
-0.0079237196180556
 10
-0.0043063693576389
 20
-0.0079237196180556
 10
-0.0079237196180556
 20
-0.0044786241319444
 10
-0.0079237196180556
 20
0.0
 10
-0.0079237196180556
 20
0.0037896050347222
 10
-0.0043063693576389
 20
0.0079237196180556
 10
0.0
 20
0.0079237196180556
 10
0.0043063693576389
 20
0.0079237196180556
 10
0.0079237196180556
 20
0.0037896050347222
 10
0.0079237196180556
 20
0.0
 97
        0
 75
     0
 76
     1
 98
        1
 10
0.0
 20
0.0
  0
ENDBLK
  5
165
100
AcDbEntity
  8
LAYER_3
100
AcDbBlockEnd
  0
BLOCK
  5
16C
100
AcDbEntity
  8
LAYER_3
 62
     7
100
AcDbBlockBegin
  2
AI9-BLK29
 70
     0
 10
0.0
 20
0.0
 30
0.0
  3
AI9-BLK29
  1

  0
HATCH
  5
17E
100
AcDbEntity
  8
LAYER_3
 62
     7
100
AcDbHatch
 10
0.0
 20
0.0
 30
0.0
210
0.0
220
0.0
230
1.0
  2
SOLID
 70
     1
 71
     0
 91
        1
 92
        3
 72
     0
 73
     1
 93
        3
 10
-4.3621799045138889
 20
29.406215413411456
 10
-2.8382419162326387
 20
29.406215413411456
 10
-3.6001247829861107
 20
33.979062906901035
 97
        0
 75
     0
 76
     1
 98
        1
 10
0.0
 20
0.0
  0
HATCH
  5
17D
100
AcDbEntity
  8
LAYER_3
 62
     7
100
AcDbHatch
 10
0.0
 20
0.0
 30
0.0
210
0.0
220
0.0
230
1.0
  2
SOLID
 70
     1
 71
     0
 91
        1
 92
        3
 72
     0
 73
     1
 93
        3
 10
-4.3621799045138889
 20
-29.40604315863715
 10
-2.8382419162326387
 20
-29.40604315863715
 10
-3.6001247829861107
 20
-33.978718397352431
 97
        0
 75
     0
 76
     1
 98
        1
 10
0.0
 20
0.0
  0
MTEXT
  5
17C
100
AcDbEntity
  8
LAYER_3
 62
     7
100
AcDbMText
 10
-14.651302
 20
2.286609
 30
0.0
 40
4.57286
 41
0.0
 71
     1
 72
     2
  1
\fMyriad Roman|b0|i0;2.6750
  7
STD
210
0.0
220
0.0
230
1.0
 11
1.000001
 21
0.0
 31
0.0
  0
INSERT
  5
178
100
AcDbEntity
  8
LAYER_3
 62
     7
100
AcDbBlockReference
  2
AI9-BLK32
 10
14.643378
 20
33.978891
 30
0.0
  0
INSERT
  5
173
100
AcDbEntity
  8
LAYER_3
 62
     7
100
AcDbBlockReference
  2
AI9-BLK31
 10
14.643378
 20
-33.978718
 30
0.0
  0
INSERT
  5
16E
100
AcDbEntity
  8
LAYER_3
 62
     7
100
AcDbBlockReference
  2
AI9-BLK30
 10
-3.600125
 20
-33.978718
 30
0.0
  0
ENDBLK
  5
17F
100
AcDbEntity
  8
LAYER_3
100
AcDbBlockEnd
  0
BLOCK
  5
16F
100
AcDbEntity
  8
LAYER_3
 62
     7
100
AcDbBlockBegin
  2
AI9-BLK30
 70
     0
 10
0.0
 20
0.0
 30
0.0
  3
AI9-BLK30
  1

  0
HATCH
  5
170
100
AcDbEntity
  8
LAYER_3
 62
     7
100
AcDbHatch
 10
0.0
 20
0.0
 30
0.0
210
0.0
220
0.0
230
1.0
  2
SOLID
 70
     1
 71
     0
 91
        1
 92
        1
 93
        1
 72
     4
 94
        3
 73
     0
 74
     0
 95
       17
 96
       13
 40
0.0
 40
0.0
 40
0.0
 40
0.0
 40
1.0
 40
1.0
 40
1.0
 40
2.0
 40
2.0
 40
2.0
 40
3.0
 40
3.0
 40
3.0
 40
4.0
 40
4.0
 40
4.0
 40
4.0
 10
0.00775146484375
 20
0.0
 10
0.00775146484375
 20
-0.0044786241319444
 10
0.0043063693576389
 20
-0.0079237196180556
 10
0.0
 20
-0.0079237196180556
 10
-0.0043063693576389
 20
-0.0079237196180556
 10
-0.00775146484375
 20
-0.0044786241319444
 10
-0.00775146484375
 20
0.0
 10
-0.00775146484375
 20
0.0037896050347222
 10
-0.0043063693576389
 20
0.0079237196180556
 10
0.0
 20
0.0079237196180556
 10
0.0043063693576389
 20
0.0079237196180556
 10
0.00775146484375
 20
0.0037896050347222
 10
0.00775146484375
 20
0.0
 97
        0
 75
     0
 76
     1
 98
        1
 10
0.0
 20
0.0
  0
ENDBLK
  5
171
100
AcDbEntity
  8
LAYER_3
100
AcDbBlockEnd
  0
BLOCK
  5
174
100
AcDbEntity
  8
LAYER_3
 62
     7
100
AcDbBlockBegin
  2
AI9-BLK31
 70
     0
 10
0.0
 20
0.0
 30
0.0
  3
AI9-BLK31
  1

  0
HATCH
  5
175
100
AcDbEntity
  8
LAYER_3
 62
     7
100
AcDbHatch
 10
0.0
 20
0.0
 30
0.0
210
0.0
220
0.0
230
1.0
  2
SOLID
 70
     1
 71
     0
 91
        1
 92
        1
 93
        1
 72
     4
 94
        3
 73
     0
 74
     0
 95
       17
 96
       13
 40
0.0
 40
0.0
 40
0.0
 40
0.0
 40
1.0
 40
1.0
 40
1.0
 40
2.0
 40
2.0
 40
2.0
 40
3.0
 40
3.0
 40
3.0
 40
4.0
 40
4.0
 40
4.0
 40
4.0
 10
0.0079237196180556
 20
0.0
 10
0.0079237196180556
 20
-0.0044786241319444
 10
0.0043063693576389
 20
-0.0079237196180556
 10
0.0
 20
-0.0079237196180556
 10
-0.0043063693576389
 20
-0.0079237196180556
 10
-0.0079237196180556
 20
-0.0044786241319444
 10
-0.0079237196180556
 20
0.0
 10
-0.0079237196180556
 20
0.0037896050347222
 10
-0.0043063693576389
 20
0.0079237196180556
 10
0.0
 20
0.0079237196180556
 10
0.0043063693576389
 20
0.0079237196180556
 10
0.0079237196180556
 20
0.0037896050347222
 10
0.0079237196180556
 20
0.0
 97
        0
 75
     0
 76
     1
 98
        1
 10
0.0
 20
0.0
  0
ENDBLK
  5
176
100
AcDbEntity
  8
LAYER_3
100
AcDbBlockEnd
  0
BLOCK
  5
179
100
AcDbEntity
  8
LAYER_3
 62
     7
100
AcDbBlockBegin
  2
AI9-BLK32
 70
     0
 10
0.0
 20
0.0
 30
0.0
  3
AI9-BLK32
  1

  0
HATCH
  5
17A
100
AcDbEntity
  8
LAYER_3
 62
     7
100
AcDbHatch
 10
0.0
 20
0.0
 30
0.0
210
0.0
220
0.0
230
1.0
  2
SOLID
 70
     1
 71
     0
 91
        1
 92
        1
 93
        1
 72
     4
 94
        3
 73
     0
 74
     0
 95
       17
 96
       13
 40
0.0
 40
0.0
 40
0.0
 40
0.0
 40
1.0
 40
1.0
 40
1.0
 40
2.0
 40
2.0
 40
2.0
 40
3.0
 40
3.0
 40
3.0
 40
4.0
 40
4.0
 40
4.0
 40
4.0
 10
0.0079237196180556
 20
0.0001722547743056
 10
0.0079237196180556
 20
-0.0041341145833333
 10
0.0043063693576389
 20
-0.00775146484375
 10
0.0
 20
-0.00775146484375
 10
-0.0043063693576389
 20
-0.00775146484375
 10
-0.0079237196180556
 20
-0.0041341145833333
 10
-0.0079237196180556
 20
0.0001722547743056
 10
-0.0079237196180556
 20
0.0044786241319444
 10
-0.0043063693576389
 20
0.00775146484375
 10
0.0
 20
0.00775146484375
 10
0.0043063693576389
 20
0.00775146484375
 10
0.0079237196180556
 20
0.0044786241319444
 10
0.0079237196180556
 20
0.0001722547743056
 97
        0
 75
     0
 76
     1
 98
        1
 10
0.0
 20
0.0
  0
ENDBLK
  5
17B
100
AcDbEntity
  8
LAYER_3
100
AcDbBlockEnd
  0
ENDSEC
  0
SECTION
  2
ENTITIES
  0
IMAGE
  5
187
100
AcDbEntity
  8
LAYER_2
 62
     7
 92
        0
100
AcDbRasterImage
 90
        0
 10
79.302653
 20
42.150505
 30
0.0
 11
0.169333
 21
0.0
 31
0.0
 12
0.0
 22
0.169333
 32
0.0
 13
242.0
 23
885.0
340
189
 70
     7
280
     0
281
    50
282
    50
283
     0
360
188
 71
     1
 91
        2
 14
-0.5
 24
-0.5
 14
241.5
 24
884.5
  0
SPLINE
  5
185
100
AcDbEntity
  8
LAYER_1
 62
     7
100
AcDbSpline
210
0.0
220
0.0
230
1.0
 70
     8
 71
     3
 72
     8
 73
     4
 74
     0
 42
0.00000001
 43
0.00000001
 40
0.0
 40
0.0
 40
0.0
 40
0.0
 40
1.0
 40
1.0
 40
1.0
 40
1.0
 10
93.915025499131943
 20
102.41717664930555
 30
0.0
 10
105.3084730360243
 20
100.01525607638888
 30
0.0
 10
117.05573187934027
 20
100.01525607638888
 30
0.0
 10
128.45004069010415
 20
102.41717664930555
 30
0.0
  0
SPLINE
  5
184
100
AcDbEntity
  8
LAYER_1
 62
     7
100
AcDbSpline
210
0.0
220
0.0
230
1.0
 70
     8
 71
     3
 72
     8
 73
     4
 74
     0
 42
0.00000001
 43
0.00000001
 40
0.0
 40
0.0
 40
0.0
 40
0.0
 40
1.0
 40
1.0
 40
1.0
 40
1.0
 10
128.6901638454861
 20
172.07028944227429
 30
0.0
 10
117.46397569444443
 20
173.5868204752604
 30
0.0
 10
105.38064778645833
 20
173.5868204752604
 30
0.0
 10
94.15463189019097
 20
172.07028944227429
 30
0.0
  0
SPLINE
  5
183
100
AcDbEntity
  8
LAYER_1
 62
     7
100
AcDbSpline
210
0.0
220
0.0
230
1.0
 70
     8
 71
     3
 72
    29
 73
    25
 74
     0
 42
0.00000001
 43
0.00000001
 40
0.0
 40
0.0
 40
0.0
 40
0.0
 40
1.0
 40
1.0
 40
1.0
 40
2.0
 40
2.0
 40
2.0
 40
3.0
 40
3.0
 40
3.0
 40
4.0
 40
4.0
 40
4.0
 40
5.0
 40
5.0
 40
5.0
 40
6.0
 40
6.0
 40
6.0
 40
7.0
 40
7.0
 40
7.0
 40
8.0
 40
8.0
 40
8.0
 40
8.0
 10
92.187826877170124
 20
183.92382948133678
 30
0.0
 10
92.187826877170124
 20
190.89325764973955
 30
0.0
 10
95.008843315972214
 20
193.2664116753472
 30
0.0
 10
101.02449679904512
 20
194.50612928602428
 30
0.0
 10
108.45711805555554
 20
196.03799099392359
 30
0.0
 10
114.45950792100693
 20
195.89415825737845
 30
0.0
 10
121.31765950520833
 20
194.53868543836805
 30
0.0
 10
127.90674913194444
 20
193.23609483506942
 30
0.0
 10
130.17741156684028
 20
190.48139648437498
 30
0.0
 10
130.17741156684028
 20
183.92382948133678
 30
0.0
 10
130.17741156684028
 20
183.92382948133678
 30
0.0
 10
130.17741156684028
 20
55.080186631944443
 30
0.0
 10
130.17741156684028
 20
55.080186631944443
 30
0.0
 10
130.17741156684028
 20
53.662874348958326
 30
0.0
 10
127.23495551215277
 20
51.491086154513887
 30
0.0
 10
126.42191297743054
 20
51.31400824652777
 30
0.0
 10
115.34041883680554
 20
48.896929253472216
 30
0.0
 10
101.3769300672743
 20
49.607996961805554
 30
0.0
 10
96.197745768229154
 20
51.35879448784722
 30
0.0
 10
94.887403700086793
 20
51.801833767361103
 30
0.0
 10
93.080278862847209
 20
53.886805555555547
 30
0.0
 10
93.080278862847209
 20
55.169759114583329
 30
0.0
 10
93.080278862847209
 20
55.169759114583329
 30
0.0
 10
92.187826877170124
 20
183.92382948133678
 30
0.0
 10
92.187826877170124
 20
183.92382948133678
 30
0.0
  0
SPLINE
  5
182
100
AcDbEntity
  8
LAYER_1
 62
     7
100
AcDbSpline
210
0.0
220
0.0
230
1.0
 70
     8
 71
     3
 72
    11
 73
     7
 74
     0
 42
0.00000001
 43
0.00000001
 40
0.0
 40
0.0
 40
0.0
 40
0.0
 40
1.0
 40
1.0
 40
1.0
 40
2.0
 40
2.0
 40
2.0
 40
2.0
 10
101.02449679904512
 20
194.50612928602428
 30
0.0
 10
101.02449679904512
 20
194.50612928602428
 30
0.0
 10
103.2438273111979
 20
186.05479329427081
 30
0.0
 10
111.33446180555555
 20
186.24840766059026
 30
0.0
 10
118.70972222222221
 20
186.42462429470484
 30
0.0
 10
120.82363281249999
 20
193.23885091145831
 30
0.0
 10
121.34108615451387
 20
194.50612928602428
 30
0.0
  0
LINE
  5
181
100
AcDbEntity
  8
LAYER_1
 62
     7
100
AcDbLine
 10
137.266385
 20
195.855401
 30
0.0
 11
151.137373
 21
195.855401
 31
0.0
  0
INSERT
  5
16B
100
AcDbEntity
  8
LAYER_3
 62
     7
100
AcDbBlockReference
  2
AI9-BLK29
 10
81.070159
 20
137.538633
 30
0.0
  0
INSERT
  5
155
100
AcDbEntity
  8
LAYER_3
 62
     7
100
AcDbBlockReference
  2
AI9-BLK25
 10
120.871606
 20
95.993107
 30
0.0
  0
INSERT
  5
13F
100
AcDbEntity
  8
LAYER_3
 62
     7
100
AcDbBlockReference
  2
AI9-BLK21
 10
113.6239
 20
91.110373
 30
0.0
  0
INSERT
  5
129
100
AcDbEntity
  8
LAYER_3
 62
     7
100
AcDbBlockReference
  2
AI9-BLK17
 10
120.871606
 20
202.985284
 30
0.0
  0
INSERT
  5
113
100
AcDbEntity
  8
LAYER_3
 62
     7
100
AcDbBlockReference
  2
AI9-BLK13
 10
141.666977
 20
157.389446
 30
0.0
  0
INSERT
  5
FD
100
AcDbEntity
  8
LAYER_3
 62
     7
100
AcDbBlockReference
  2
AI9-BLK9
 10
161.761013
 20
157.389704
 30
0.0
  0
INSERT
  5
E7
100
AcDbEntity
  8
LAYER_3
 62
     7
100
AcDbBlockReference
  2
AI9-BLK5
 10
127.425986
 20
178.593319
 30
0.0
  0
INSERT
  5
D1
100
AcDbEntity
  8
LAYER_3
 62
     7
100
AcDbBlockReference
  2
AI9-BLK1
 10
144.949292
 20
109.906642
 30
0.0
  0
POLYLINE
  5
CA
100
AcDbEntity
  8
LAYER_3
 62
     7
100
AcDb2dPolyline
 66
     1
 10
0.0
 20
0.0
 30
0.0
 70
     1
  0
VERTEX
  5
CB
100
AcDbEntity
  8
LAYER_3
 62
     7
100
AcDbVertex
100
AcDb2dVertex
 10
126.707167
 20
171.517696
 30
0.0
  0
VERTEX
  5
CC
100
AcDbEntity
  8
LAYER_3
 62
     7
100
AcDbVertex
100
AcDb2dVertex
 10
95.713538
 20
171.517696
 30
0.0
  0
VERTEX
  5
CD
100
AcDbEntity
  8
LAYER_3
 62
     7
100
AcDbVertex
100
AcDb2dVertex
 10
95.713538
 20
103.559915
 30
0.0
  0
VERTEX
  5
CE
100
AcDbEntity
  8
LAYER_3
 62
     7
100
AcDbVertex
100
AcDb2dVertex
 10
126.707167
 20
103.559915
 30
0.0
  0
SEQEND
  5
CF
100
AcDbEntity
  8
LAYER_3
 62
     7
  0
POLYLINE
  5
C4
100
AcDbEntity
  8
LAYER_3
 62
     7
100
AcDb2dPolyline
 66
     1
 10
0.0
 20
0.0
 30
0.0
 70
     1
  0
VERTEX
  5
C5
100
AcDbEntity
  8
LAYER_3
 62
     7
100
AcDbVertex
100
AcDb2dVertex
 10
113.649221
 20
117.421257
 30
0.0
  0
VERTEX
  5
C6
100
AcDbEntity
  8
LAYER_3
 62
     7
100
AcDbVertex
100
AcDb2dVertex
 10
113.649221
 20
113.432525
 30
0.0
  0
VERTEX
  5
C7
100
AcDbEntity
  8
LAYER_3
 62
     7
100
AcDbVertex
100
AcDb2dVertex
 10
121.880588
 20
113.432525
 30
0.0
  0
VERTEX
  5
C8
100
AcDbEntity
  8
LAYER_3
 62
     7
100
AcDbVertex
100
AcDb2dVertex
 10
121.880588
 20
117.421257
 30
0.0
  0
SEQEND
  5
C9
100
AcDbEntity
  8
LAYER_3
 62
     7
  0
POLYLINE
  5
BE
100
AcDbEntity
  8
LAYER_3
 62
     7
100
AcDb2dPolyline
 66
     1
 10
0.0
 20
0.0
 30
0.0
 70
     1
  0
VERTEX
  5
BF
100
AcDbEntity
  8
LAYER_3
 62
     7
100
AcDbVertex
100
AcDb2dVertex
 10
100.540289
 20
117.421257
 30
0.0
  0
VERTEX
  5
C0
100
AcDbEntity
  8
LAYER_3
 62
     7
100
AcDbVertex
100
AcDb2dVertex
 10
100.540289
 20
113.432525
 30
0.0
  0
VERTEX
  5
C1
100
AcDbEntity
  8
LAYER_3
 62
     7
100
AcDbVertex
100
AcDb2dVertex
 10
108.771655
 20
113.432525
 30
0.0
  0
VERTEX
  5
C2
100
AcDbEntity
  8
LAYER_3
 62
     7
100
AcDbVertex
100
AcDb2dVertex
 10
108.771655
 20
117.421257
 30
0.0
  0
SEQEND
  5
C3
100
AcDbEntity
  8
LAYER_3
 62
     7
  0
POLYLINE
  5
B8
100
AcDbEntity
  8
LAYER_3
 62
     7
100
AcDb2dPolyline
 66
     1
 10
0.0
 20
0.0
 30
0.0
 70
     1
  0
VERTEX
  5
B9
100
AcDbEntity
  8
LAYER_3
 62
     7
100
AcDbVertex
100
AcDb2dVertex
 10
113.649221
 20
125.398375
 30
0.0
  0
VERTEX
  5
BA
100
AcDbEntity
  8
LAYER_3
 62
     7
100
AcDbVertex
100
AcDb2dVertex
 10
113.649221
 20
121.409299
 30
0.0
  0
VERTEX
  5
BB
100
AcDbEntity
  8
LAYER_3
 62
     7
100
AcDbVertex
100
AcDb2dVertex
 10
121.880588
 20
121.409299
 30
0.0
  0
VERTEX
  5
BC
100
AcDbEntity
  8
LAYER_3
 62
     7
100
AcDbVertex
100
AcDb2dVertex
 10
121.880588
 20
125.398375
 30
0.0
  0
SEQEND
  5
BD
100
AcDbEntity
  8
LAYER_3
 62
     7
  0
POLYLINE
  5
B2
100
AcDbEntity
  8
LAYER_3
 62
     7
100
AcDb2dPolyline
 66
     1
 10
0.0
 20
0.0
 30
0.0
 70
     1
  0
VERTEX
  5
B3
100
AcDbEntity
  8
LAYER_3
 62
     7
100
AcDbVertex
100
AcDb2dVertex
 10
113.649221
 20
133.375494
 30
0.0
  0
VERTEX
  5
B4
100
AcDbEntity
  8
LAYER_3
 62
     7
100
AcDbVertex
100
AcDb2dVertex
 10
113.649221
 20
129.387107
 30
0.0
  0
VERTEX
  5
B5
100
AcDbEntity
  8
LAYER_3
 62
     7
100
AcDbVertex
100
AcDb2dVertex
 10
121.880588
 20
129.387107
 30
0.0
  0
VERTEX
  5
B6
100
AcDbEntity
  8
LAYER_3
 62
     7
100
AcDbVertex
100
AcDb2dVertex
 10
121.880588
 20
133.375494
 30
0.0
  0
SEQEND
  5
B7
100
AcDbEntity
  8
LAYER_3
 62
     7
  0
POLYLINE
  5
AC
100
AcDbEntity
  8
LAYER_3
 62
     7
100
AcDb2dPolyline
 66
     1
 10
0.0
 20
0.0
 30
0.0
 70
     1
  0
VERTEX
  5
AD
100
AcDbEntity
  8
LAYER_3
 62
     7
100
AcDbVertex
100
AcDb2dVertex
 10
113.649221
 20
141.35244
 30
0.0
  0
VERTEX
  5
AE
100
AcDbEntity
  8
LAYER_3
 62
     7
100
AcDbVertex
100
AcDb2dVertex
 10
113.649221
 20
137.364225
 30
0.0
  0
VERTEX
  5
AF
100
AcDbEntity
  8
LAYER_3
 62
     7
100
AcDbVertex
100
AcDb2dVertex
 10
121.880588
 20
137.364225
 30
0.0
  0
VERTEX
  5
B0
100
AcDbEntity
  8
LAYER_3
 62
     7
100
AcDbVertex
100
AcDb2dVertex
 10
121.880588
 20
141.35244
 30
0.0
  0
SEQEND
  5
B1
100
AcDbEntity
  8
LAYER_3
 62
     7
  0
POLYLINE
  5
A6
100
AcDbEntity
  8
LAYER_3
 62
     7
100
AcDb2dPolyline
 66
     1
 10
0.0
 20
0.0
 30
0.0
 70
     1
  0
VERTEX
  5
A7
100
AcDbEntity
  8
LAYER_3
 62
     7
100
AcDbVertex
100
AcDb2dVertex
 10
113.649221
 20
145.341344
 30
0.0
  0
VERTEX
  5
A8
100
AcDbEntity
  8
LAYER_3
 62
     7
100
AcDbVertex
100
AcDb2dVertex
 10
113.649221
 20
149.329903
 30
0.0
  0
VERTEX
  5
A9
100
AcDbEntity
  8
LAYER_3
 62
     7
100
AcDbVertex
100
AcDb2dVertex
 10
121.880588
 20
149.329903
 30
0.0
  0
VERTEX
  5
AA
100
AcDbEntity
  8
LAYER_3
 62
     7
100
AcDbVertex
100
AcDb2dVertex
 10
121.880588
 20
145.341344
 30
0.0
  0
SEQEND
  5
AB
100
AcDbEntity
  8
LAYER_3
 62
     7
  0
POLYLINE
  5
A0
100
AcDbEntity
  8
LAYER_3
 62
     7
100
AcDb2dPolyline
 66
     1
 10
0.0
 20
0.0
 30
0.0
 70
     1
  0
VERTEX
  5
A1
100
AcDbEntity
  8
LAYER_3
 62
     7
100
AcDbVertex
100
AcDb2dVertex
 10
113.649221
 20
157.306677
 30
0.0
  0
VERTEX
  5
A2
100
AcDbEntity
  8
LAYER_3
 62
     7
100
AcDbVertex
100
AcDb2dVertex
 10
113.649221
 20
153.318118
 30
0.0
  0
VERTEX
  5
A3
100
AcDbEntity
  8
LAYER_3
 62
     7
100
AcDbVertex
100
AcDb2dVertex
 10
121.880588
 20
153.318118
 30
0.0
  0
VERTEX
  5
A4
100
AcDbEntity
  8
LAYER_3
 62
     7
100
AcDbVertex
100
AcDb2dVertex
 10
121.880588
 20
157.306677
 30
0.0
  0
SEQEND
  5
A5
100
AcDbEntity
  8
LAYER_3
 62
     7
  0
POLYLINE
  5
9A
100
AcDbEntity
  8
LAYER_3
 62
     7
100
AcDb2dPolyline
 66
     1
 10
0.0
 20
0.0
 30
0.0
 70
     1
  0
VERTEX
  5
9B
100
AcDbEntity
  8
LAYER_3
 62
     7
100
AcDbVertex
100
AcDb2dVertex
 10
113.649221
 20
161.295237
 30
0.0
  0
VERTEX
  5
9C
100
AcDbEntity
  8
LAYER_3
 62
     7
100
AcDbVertex
100
AcDb2dVertex
 10
113.649221
 20
165.283796
 30
0.0
  0
VERTEX
  5
9D
100
AcDbEntity
  8
LAYER_3
 62
     7
100
AcDbVertex
100
AcDb2dVertex
 10
121.880588
 20
165.283796
 30
0.0
  0
VERTEX
  5
9E
100
AcDbEntity
  8
LAYER_3
 62
     7
100
AcDbVertex
100
AcDb2dVertex
 10
121.880588
 20
161.295237
 30
0.0
  0
SEQEND
  5
9F
100
AcDbEntity
  8
LAYER_3
 62
     7
  0
POLYLINE
  5
94
100
AcDbEntity
  8
LAYER_3
 62
     7
100
AcDb2dPolyline
 66
     1
 10
0.0
 20
0.0
 30
0.0
 70
     1
  0
VERTEX
  5
95
100
AcDbEntity
  8
LAYER_3
 62
     7
100
AcDbVertex
100
AcDb2dVertex
 10
108.771655
 20
153.318118
 30
0.0
  0
VERTEX
  5
96
100
AcDbEntity
  8
LAYER_3
 62
     7
100
AcDbVertex
100
AcDb2dVertex
 10
100.540289
 20
153.318118
 30
0.0
  0
VERTEX
  5
97
100
AcDbEntity
  8
LAYER_3
 62
     7
100
AcDbVertex
100
AcDb2dVertex
 10
100.540289
 20
157.306677
 30
0.0
  0
VERTEX
  5
98
100
AcDbEntity
  8
LAYER_3
 62
     7
100
AcDbVertex
100
AcDb2dVertex
 10
108.771655
 20
157.306677
 30
0.0
  0
SEQEND
  5
99
100
AcDbEntity
  8
LAYER_3
 62
     7
  0
POLYLINE
  5
8E
100
AcDbEntity
  8
LAYER_3
 62
     7
100
AcDb2dPolyline
 66
     1
 10
0.0
 20
0.0
 30
0.0
 70
     1
  0
VERTEX
  5
8F
100
AcDbEntity
  8
LAYER_3
 62
     7
100
AcDbVertex
100
AcDb2dVertex
 10
108.771655
 20
137.364225
 30
0.0
  0
VERTEX
  5
90
100
AcDbEntity
  8
LAYER_3
 62
     7
100
AcDbVertex
100
AcDb2dVertex
 10
100.540289
 20
137.364225
 30
0.0
  0
VERTEX
  5
91
100
AcDbEntity
  8
LAYER_3
 62
     7
100
AcDbVertex
100
AcDb2dVertex
 10
100.540289
 20
141.35244
 30
0.0
  0
VERTEX
  5
92
100
AcDbEntity
  8
LAYER_3
 62
     7
100
AcDbVertex
100
AcDb2dVertex
 10
108.771655
 20
141.35244
 30
0.0
  0
SEQEND
  5
93
100
AcDbEntity
  8
LAYER_3
 62
     7
  0
POLYLINE
  5
88
100
AcDbEntity
  8
LAYER_3
 62
     7
100
AcDb2dPolyline
 66
     1
 10
0.0
 20
0.0
 30
0.0
 70
     1
  0
VERTEX
  5
89
100
AcDbEntity
  8
LAYER_3
 62
     7
100
AcDbVertex
100
AcDb2dVertex
 10
100.540289
 20
125.398375
 30
0.0
  0
VERTEX
  5
8A
100
AcDbEntity
  8
LAYER_3
 62
     7
100
AcDbVertex
100
AcDb2dVertex
 10
100.540289
 20
121.409299
 30
0.0
  0
VERTEX
  5
8B
100
AcDbEntity
  8
LAYER_3
 62
     7
100
AcDbVertex
100
AcDb2dVertex
 10
108.771655
 20
121.409299
 30
0.0
  0
VERTEX
  5
8C
100
AcDbEntity
  8
LAYER_3
 62
     7
100
AcDbVertex
100
AcDb2dVertex
 10
108.771655
 20
125.398375
 30
0.0
  0
SEQEND
  5
8D
100
AcDbEntity
  8
LAYER_3
 62
     7
  0
POLYLINE
  5
82
100
AcDbEntity
  8
LAYER_3
 62
     7
100
AcDb2dPolyline
 66
     1
 10
0.0
 20
0.0
 30
0.0
 70
     1
  0
VERTEX
  5
83
100
AcDbEntity
  8
LAYER_3
 62
     7
100
AcDbVertex
100
AcDb2dVertex
 10
100.540289
 20
133.375494
 30
0.0
  0
VERTEX
  5
84
100
AcDbEntity
  8
LAYER_3
 62
     7
100
AcDbVertex
100
AcDb2dVertex
 10
100.540289
 20
129.387107
 30
0.0
  0
VERTEX
  5
85
100
AcDbEntity
  8
LAYER_3
 62
     7
100
AcDbVertex
100
AcDb2dVertex
 10
108.771655
 20
129.387107
 30
0.0
  0
VERTEX
  5
86
100
AcDbEntity
  8
LAYER_3
 62
     7
100
AcDbVertex
100
AcDb2dVertex
 10
108.771655
 20
133.375494
 30
0.0
  0
SEQEND
  5
87
100
AcDbEntity
  8
LAYER_3
 62
     7
  0
POLYLINE
  5
7C
100
AcDbEntity
  8
LAYER_3
 62
     7
100
AcDb2dPolyline
 66
     1
 10
0.0
 20
0.0
 30
0.0
 70
     1
  0
VERTEX
  5
7D
100
AcDbEntity
  8
LAYER_3
 62
     7
100
AcDbVertex
100
AcDb2dVertex
 10
100.540289
 20
145.341344
 30
0.0
  0
VERTEX
  5
7E
100
AcDbEntity
  8
LAYER_3
 62
     7
100
AcDbVertex
100
AcDb2dVertex
 10
100.540289
 20
149.329903
 30
0.0
  0
VERTEX
  5
7F
100
AcDbEntity
  8
LAYER_3
 62
     7
100
AcDbVertex
100
AcDb2dVertex
 10
108.771655
 20
149.329903
 30
0.0
  0
VERTEX
  5
80
100
AcDbEntity
  8
LAYER_3
 62
     7
100
AcDbVertex
100
AcDb2dVertex
 10
108.771655
 20
145.341344
 30
0.0
  0
SEQEND
  5
81
100
AcDbEntity
  8
LAYER_3
 62
     7
  0
POLYLINE
  5
76
100
AcDbEntity
  8
LAYER_3
 62
     7
100
AcDb2dPolyline
 66
     1
 10
0.0
 20
0.0
 30
0.0
 70
     1
  0
VERTEX
  5
77
100
AcDbEntity
  8
LAYER_3
 62
     7
100
AcDbVertex
100
AcDb2dVertex
 10
100.540289
 20
165.283796
 30
0.0
  0
VERTEX
  5
78
100
AcDbEntity
  8
LAYER_3
 62
     7
100
AcDbVertex
100
AcDb2dVertex
 10
100.540289
 20
161.295237
 30
0.0
  0
VERTEX
  5
79
100
AcDbEntity
  8
LAYER_3
 62
     7
100
AcDbVertex
100
AcDb2dVertex
 10
108.771655
 20
161.295237
 30
0.0
  0
VERTEX
  5
7A
100
AcDbEntity
  8
LAYER_3
 62
     7
100
AcDbVertex
100
AcDb2dVertex
 10
108.771655
 20
165.283796
 30
0.0
  0
SEQEND
  5
7B
100
AcDbEntity
  8
LAYER_3
 62
     7
  0
POLYLINE
  5
70
100
AcDbEntity
  8
LAYER_3
 62
     7
100
AcDb2dPolyline
 66
     1
 10
0.0
 20
0.0
 30
0.0
 70
     1
  0
VERTEX
  5
71
100
AcDbEntity
  8
LAYER_3
 62
     7
100
AcDbVertex
100
AcDb2dVertex
 10
113.801839
 20
117.268983
 30
0.0
  0
VERTEX
  5
72
100
AcDbEntity
  8
LAYER_3
 62
     7
100
AcDbVertex
100
AcDb2dVertex
 10
113.801839
 20
113.584798
 30
0.0
  0
VERTEX
  5
73
100
AcDbEntity
  8
LAYER_3
 62
     7
100
AcDbVertex
100
AcDb2dVertex
 10
121.727626
 20
113.584798
 30
0.0
  0
VERTEX
  5
74
100
AcDbEntity
  8
LAYER_3
 62
     7
100
AcDbVertex
100
AcDb2dVertex
 10
121.727626
 20
117.268983
 30
0.0
  0
SEQEND
  5
75
100
AcDbEntity
  8
LAYER_3
 62
     7
  0
POLYLINE
  5
6A
100
AcDbEntity
  8
LAYER_3
 62
     7
100
AcDb2dPolyline
 66
     1
 10
0.0
 20
0.0
 30
0.0
 70
     1
  0
VERTEX
  5
6B
100
AcDbEntity
  8
LAYER_3
 62
     7
100
AcDbVertex
100
AcDb2dVertex
 10
100.693079
 20
117.268983
 30
0.0
  0
VERTEX
  5
6C
100
AcDbEntity
  8
LAYER_3
 62
     7
100
AcDbVertex
100
AcDb2dVertex
 10
100.693079
 20
113.584798
 30
0.0
  0
VERTEX
  5
6D
100
AcDbEntity
  8
LAYER_3
 62
     7
100
AcDbVertex
100
AcDb2dVertex
 10
108.619038
 20
113.584798
 30
0.0
  0
VERTEX
  5
6E
100
AcDbEntity
  8
LAYER_3
 62
     7
100
AcDbVertex
100
AcDb2dVertex
 10
108.619038
 20
117.268983
 30
0.0
  0
SEQEND
  5
6F
100
AcDbEntity
  8
LAYER_3
 62
     7
  0
POLYLINE
  5
64
100
AcDbEntity
  8
LAYER_3
 62
     7
100
AcDb2dPolyline
 66
     1
 10
0.0
 20
0.0
 30
0.0
 70
     1
  0
VERTEX
  5
65
100
AcDbEntity
  8
LAYER_3
 62
     7
100
AcDbVertex
100
AcDb2dVertex
 10
100.693079
 20
125.245757
 30
0.0
  0
VERTEX
  5
66
100
AcDbEntity
  8
LAYER_3
 62
     7
100
AcDbVertex
100
AcDb2dVertex
 10
100.693079
 20
121.562261
 30
0.0
  0
VERTEX
  5
67
100
AcDbEntity
  8
LAYER_3
 62
     7
100
AcDbVertex
100
AcDb2dVertex
 10
108.619038
 20
121.562261
 30
0.0
  0
VERTEX
  5
68
100
AcDbEntity
  8
LAYER_3
 62
     7
100
AcDbVertex
100
AcDb2dVertex
 10
108.619038
 20
125.245757
 30
0.0
  0
SEQEND
  5
69
100
AcDbEntity
  8
LAYER_3
 62
     7
  0
POLYLINE
  5
5E
100
AcDbEntity
  8
LAYER_3
 62
     7
100
AcDb2dPolyline
 66
     1
 10
0.0
 20
0.0
 30
0.0
 70
     1
  0
VERTEX
  5
5F
100
AcDbEntity
  8
LAYER_3
 62
     7
100
AcDbVertex
100
AcDb2dVertex
 10
113.801839
 20
125.245757
 30
0.0
  0
VERTEX
  5
60
100
AcDbEntity
  8
LAYER_3
 62
     7
100
AcDbVertex
100
AcDb2dVertex
 10
113.801839
 20
121.562261
 30
0.0
  0
VERTEX
  5
61
100
AcDbEntity
  8
LAYER_3
 62
     7
100
AcDbVertex
100
AcDb2dVertex
 10
121.727626
 20
121.562261
 30
0.0
  0
VERTEX
  5
62
100
AcDbEntity
  8
LAYER_3
 62
     7
100
AcDbVertex
100
AcDb2dVertex
 10
121.727626
 20
125.245757
 30
0.0
  0
SEQEND
  5
63
100
AcDbEntity
  8
LAYER_3
 62
     7
  0
POLYLINE
  5
58
100
AcDbEntity
  8
LAYER_3
 62
     7
100
AcDb2dPolyline
 66
     1
 10
0.0
 20
0.0
 30
0.0
 70
     1
  0
VERTEX
  5
59
100
AcDbEntity
  8
LAYER_3
 62
     7
100
AcDbVertex
100
AcDb2dVertex
 10
113.801839
 20
133.22322
 30
0.0
  0
VERTEX
  5
5A
100
AcDbEntity
  8
LAYER_3
 62
     7
100
AcDbVertex
100
AcDb2dVertex
 10
113.801839
 20
129.539035
 30
0.0
  0
VERTEX
  5
5B
100
AcDbEntity
  8
LAYER_3
 62
     7
100
AcDbVertex
100
AcDb2dVertex
 10
121.727626
 20
129.539035
 30
0.0
  0
VERTEX
  5
5C
100
AcDbEntity
  8
LAYER_3
 62
     7
100
AcDbVertex
100
AcDb2dVertex
 10
121.727626
 20
133.22322
 30
0.0
  0
SEQEND
  5
5D
100
AcDbEntity
  8
LAYER_3
 62
     7
  0
POLYLINE
  5
52
100
AcDbEntity
  8
LAYER_3
 62
     7
100
AcDb2dPolyline
 66
     1
 10
0.0
 20
0.0
 30
0.0
 70
     1
  0
VERTEX
  5
53
100
AcDbEntity
  8
LAYER_3
 62
     7
100
AcDbVertex
100
AcDb2dVertex
 10
100.693079
 20
133.22322
 30
0.0
  0
VERTEX
  5
54
100
AcDbEntity
  8
LAYER_3
 62
     7
100
AcDbVertex
100
AcDb2dVertex
 10
100.693079
 20
129.539035
 30
0.0
  0
VERTEX
  5
55
100
AcDbEntity
  8
LAYER_3
 62
     7
100
AcDbVertex
100
AcDb2dVertex
 10
108.619038
 20
129.539035
 30
0.0
  0
VERTEX
  5
56
100
AcDbEntity
  8
LAYER_3
 62
     7
100
AcDbVertex
100
AcDb2dVertex
 10
108.619038
 20
133.22322
 30
0.0
  0
SEQEND
  5
57
100
AcDbEntity
  8
LAYER_3
 62
     7
  0
POLYLINE
  5
4C
100
AcDbEntity
  8
LAYER_3
 62
     7
100
AcDb2dPolyline
 66
     1
 10
0.0
 20
0.0
 30
0.0
 70
     1
  0
VERTEX
  5
4D
100
AcDbEntity
  8
LAYER_3
 62
     7
100
AcDbVertex
100
AcDb2dVertex
 10
108.619038
 20
137.516498
 30
0.0
  0
VERTEX
  5
4E
100
AcDbEntity
  8
LAYER_3
 62
     7
100
AcDbVertex
100
AcDb2dVertex
 10
100.693079
 20
137.516498
 30
0.0
  0
VERTEX
  5
4F
100
AcDbEntity
  8
LAYER_3
 62
     7
100
AcDbVertex
100
AcDb2dVertex
 10
100.693079
 20
141.200167
 30
0.0
  0
VERTEX
  5
50
100
AcDbEntity
  8
LAYER_3
 62
     7
100
AcDbVertex
100
AcDb2dVertex
 10
108.619038
 20
141.200167
 30
0.0
  0
SEQEND
  5
51
100
AcDbEntity
  8
LAYER_3
 62
     7
  0
POLYLINE
  5
46
100
AcDbEntity
  8
LAYER_3
 62
     7
100
AcDb2dPolyline
 66
     1
 10
0.0
 20
0.0
 30
0.0
 70
     1
  0
VERTEX
  5
47
100
AcDbEntity
  8
LAYER_3
 62
     7
100
AcDbVertex
100
AcDb2dVertex
 10
113.801839
 20
141.200167
 30
0.0
  0
VERTEX
  5
48
100
AcDbEntity
  8
LAYER_3
 62
     7
100
AcDbVertex
100
AcDb2dVertex
 10
113.801839
 20
137.516498
 30
0.0
  0
VERTEX
  5
49
100
AcDbEntity
  8
LAYER_3
 62
     7
100
AcDbVertex
100
AcDb2dVertex
 10
121.727626
 20
137.516498
 30
0.0
  0
VERTEX
  5
4A
100
AcDbEntity
  8
LAYER_3
 62
     7
100
AcDbVertex
100
AcDb2dVertex
 10
121.727626
 20
141.200167
 30
0.0
  0
SEQEND
  5
4B
100
AcDbEntity
  8
LAYER_3
 62
     7
  0
POLYLINE
  5
40
100
AcDbEntity
  8
LAYER_3
 62
     7
100
AcDb2dPolyline
 66
     1
 10
0.0
 20
0.0
 30
0.0
 70
     1
  0
VERTEX
  5
41
100
AcDbEntity
  8
LAYER_3
 62
     7
100
AcDbVertex
100
AcDb2dVertex
 10
113.801839
 20
145.493789
 30
0.0
  0
VERTEX
  5
42
100
AcDbEntity
  8
LAYER_3
 62
     7
100
AcDbVertex
100
AcDb2dVertex
 10
113.801839
 20
149.177113
 30
0.0
  0
VERTEX
  5
43
100
AcDbEntity
  8
LAYER_3
 62
     7
100
AcDbVertex
100
AcDb2dVertex
 10
121.727626
 20
149.177113
 30
0.0
  0
VERTEX
  5
44
100
AcDbEntity
  8
LAYER_3
 62
     7
100
AcDbVertex
100
AcDb2dVertex
 10
121.727626
 20
145.493789
 30
0.0
  0
SEQEND
  5
45
100
AcDbEntity
  8
LAYER_3
 62
     7
  0
POLYLINE
  5
3A
100
AcDbEntity
  8
LAYER_3
 62
     7
100
AcDb2dPolyline
 66
     1
 10
0.0
 20
0.0
 30
0.0
 70
     1
  0
VERTEX
  5
3B
100
AcDbEntity
  8
LAYER_3
 62
     7
100
AcDbVertex
100
AcDb2dVertex
 10
100.693079
 20
145.493789
 30
0.0
  0
VERTEX
  5
3C
100
AcDbEntity
  8
LAYER_3
 62
     7
100
AcDbVertex
100
AcDb2dVertex
 10
100.693079
 20
149.177113
 30
0.0
  0
VERTEX
  5
3D
100
AcDbEntity
  8
LAYER_3
 62
     7
100
AcDbVertex
100
AcDb2dVertex
 10
108.619038
 20
149.177113
 30
0.0
  0
VERTEX
  5
3E
100
AcDbEntity
  8
LAYER_3
 62
     7
100
AcDbVertex
100
AcDb2dVertex
 10
108.619038
 20
145.493789
 30
0.0
  0
SEQEND
  5
3F
100
AcDbEntity
  8
LAYER_3
 62
     7
  0
POLYLINE
  5
34
100
AcDbEntity
  8
LAYER_3
 62
     7
100
AcDb2dPolyline
 66
     1
 10
0.0
 20
0.0
 30
0.0
 70
     1
  0
VERTEX
  5
35
100
AcDbEntity
  8
LAYER_3
 62
     7
100
AcDbVertex
100
AcDb2dVertex
 10
108.619038
 20
153.470563
 30
0.0
  0
VERTEX
  5
36
100
AcDbEntity
  8
LAYER_3
 62
     7
100
AcDbVertex
100
AcDb2dVertex
 10
100.693079
 20
153.470563
 30
0.0
  0
VERTEX
  5
37
100
AcDbEntity
  8
LAYER_3
 62
     7
100
AcDbVertex
100
AcDb2dVertex
 10
100.693079
 20
157.154232
 30
0.0
  0
VERTEX
  5
38
100
AcDbEntity
  8
LAYER_3
 62
     7
100
AcDbVertex
100
AcDb2dVertex
 10
108.619038
 20
157.154232
 30
0.0
  0
SEQEND
  5
39
100
AcDbEntity
  8
LAYER_3
 62
     7
  0
POLYLINE
  5
2E
100
AcDbEntity
  8
LAYER_3
 62
     7
100
AcDb2dPolyline
 66
     1
 10
0.0
 20
0.0
 30
0.0
 70
     1
  0
VERTEX
  5
2F
100
AcDbEntity
  8
LAYER_3
 62
     7
100
AcDbVertex
100
AcDb2dVertex
 10
113.801839
 20
157.154232
 30
0.0
  0
VERTEX
  5
30
100
AcDbEntity
  8
LAYER_3
 62
     7
100
AcDbVertex
100
AcDb2dVertex
 10
113.801839
 20
153.470563
 30
0.0
  0
VERTEX
  5
31
100
AcDbEntity
  8
LAYER_3
 62
     7
100
AcDbVertex
100
AcDb2dVertex
 10
121.727626
 20
153.470563
 30
0.0
  0
VERTEX
  5
32
100
AcDbEntity
  8
LAYER_3
 62
     7
100
AcDbVertex
100
AcDb2dVertex
 10
121.727626
 20
157.154232
 30
0.0
  0
SEQEND
  5
33
100
AcDbEntity
  8
LAYER_3
 62
     7
  0
POLYLINE
  5
28
100
AcDbEntity
  8
LAYER_3
 62
     7
100
AcDb2dPolyline
 66
     1
 10
0.0
 20
0.0
 30
0.0
 70
     1
  0
VERTEX
  5
29
100
AcDbEntity
  8
LAYER_3
 62
     7
100
AcDbVertex
100
AcDb2dVertex
 10
113.801839
 20
161.447854
 30
0.0
  0
VERTEX
  5
2A
100
AcDbEntity
  8
LAYER_3
 62
     7
100
AcDbVertex
100
AcDb2dVertex
 10
113.801839
 20
165.13135
 30
0.0
  0
VERTEX
  5
2B
100
AcDbEntity
  8
LAYER_3
 62
     7
100
AcDbVertex
100
AcDb2dVertex
 10
121.727626
 20
165.13135
 30
0.0
  0
VERTEX
  5
2C
100
AcDbEntity
  8
LAYER_3
 62
     7
100
AcDbVertex
100
AcDb2dVertex
 10
121.727626
 20
161.447854
 30
0.0
  0
SEQEND
  5
2D
100
AcDbEntity
  8
LAYER_3
 62
     7
  0
POLYLINE
  5
22
100
AcDbEntity
  8
LAYER_3
 62
     7
100
AcDb2dPolyline
 66
     1
 10
0.0
 20
0.0
 30
0.0
 70
     1
  0
VERTEX
  5
23
100
AcDbEntity
  8
LAYER_3
 62
     7
100
AcDbVertex
100
AcDb2dVertex
 10
100.693079
 20
165.13135
 30
0.0
  0
VERTEX
  5
24
100
AcDbEntity
  8
LAYER_3
 62
     7
100
AcDbVertex
100
AcDb2dVertex
 10
100.693079
 20
161.447854
 30
0.0
  0
VERTEX
  5
25
100
AcDbEntity
  8
LAYER_3
 62
     7
100
AcDbVertex
100
AcDb2dVertex
 10
108.619038
 20
161.447854
 30
0.0
  0
VERTEX
  5
26
100
AcDbEntity
  8
LAYER_3
 62
     7
100
AcDbVertex
100
AcDb2dVertex
 10
108.619038
 20
165.13135
 30
0.0
  0
SEQEND
  5
27
100
AcDbEntity
  8
LAYER_3
 62
     7
  0
ENDSEC
  0
SECTION
  2
OBJECTS
  0
DICTIONARY
  5
19
100
AcDbDictionary
  3
ACAD_GROUP
350
1A
  3
ACAD_MLINESTYLE
350
1B
  0
DICTIONARY
  5
1A
102
{ACAD_REACTORS
330
19
102
}
100
AcDbDictionary
  0
DICTIONARY
  5
1B
102
{ACAD_REACTORS
330
19
102
}
100
AcDbDictionary
  3
STANDARD
350
1C
  0
MLINESTYLE
  5
1C
102
{ACAD_REACTORS
330
1B
102
}
100
AcDbMlineStyle
  2
STANDARD
 70
     0
  3

 62
     0
 51
90.0
 52
90.0
 71
     2
 49
0.5
 62
   256
  6
BYLAYER
 49
-0.5
 62
   256
  6
BYLAYER
  0
IMAGEDEF_REACTOR
  5
188
100
AcDbRasterImageDefReactor
 90
        2
330
187
  0
IMAGEDEF
  5
189
100
AcDbRasterImageDef
 90
        0
  1
C:\Documents and Settings\Judy Wu\Desktop\Images\14key_1.bmp
 10
242.0
 20
885.0
 11
0.352778
 21
0.352778
280
     1
281
     0
  0
ENDSEC
  0
EOF
