  0
SECTION
  2
HEADER
  9
$ACADVER
  1
AC1014
  9
$ACADMAINTVER
 70
     0
  9
$DWGCODEPAGE
  3
ANSI_932
  9
$INSBASE
 10
0.0
 20
0.0
 30
0.0
  9
$EXTMIN
 10
56.759498
 20
-252.970605
 30
1.000000E+20
  9
$EXTMAX
 10
180.281502
 20
0.0
 30
-1.000000E+20
  9
$LIMMIN
 10
56.759498
 20
-252.970605
  9
$LIMMAX
 10
180.281502
 20
0.0
  9
$ORTHOMODE
 70
     0
  9
$REGENMODE
 70
     1
  9
$FILLMODE
 70
     1
  9
$QTEXTMODE
 70
     0
  9
$MIRRTEXT
 70
     1
  9
$DRAGMODE
 70
     2
  9
$LTSCALE
 40
1.0
  9
$OSMODE
 70
     0
  9
$ATTMODE
 70
     1
  9
$TEXTSIZE
 40
0.2
  9
$TRACEWID
 40
0.05
  9
$TEXTSTYLE
  7
STANDARD
  9
$CLAYER
  8
0
  9
$CELTYPE
  6
CONTINUOUS
  9
$CECOLOR
 62
   256
  9
$CELTSCALE
 40
1.0
  9
$DELOBJ
 70
     1
  9
$DISPSILH
 70
     0
  9
$DIMSCALE
 40
1.0
  9
$DIMASZ
 40
0.18
  9
$DIMEXO
 40
0.0625
  9
$DIMDLI
 40
0.38
  9
$DIMRND
 40
0.0
  9
$DIMDLE
 40
0.0
  9
$DIMEXE
 40
0.18
  9
$DIMTP
 40
0.0
  9
$DIMTM
 40
0.0
  9
$DIMTXT
 40
0.18
  9
$DIMCEN
 40
0.09
  9
$DIMTSZ
 40
0.0
  9
$DIMTOL
 70
     0
  9
$DIMLIM
 70
     0
  9
$DIMTIH
 70
     1
  9
$DIMTOH
 70
     1
  9
$DIMSE1
 70
     0
  9
$DIMSE2
 70
     0
  9
$DIMTAD
 70
     0
  9
$DIMZIN
 70
     0
  9
$DIMBLK
  1

  9
$DIMASO
 70
     1
  9
$DIMSHO
 70
     1
  9
$DIMPOST
  1

  9
$DIMAPOST
  1

  9
$DIMALT
 70
     0
  9
$DIMALTD
 70
     2
  9
$DIMALTF
 40
25.4
  9
$DIMLFAC
 40
1.0
  9
$DIMTOFL
 70
     0
  9
$DIMTVP
 40
0.0
  9
$DIMTIX
 70
     0
  9
$DIMSOXD
 70
     0
  9
$DIMSAH
 70
     0
  9
$DIMBLK1
  1

  9
$DIMBLK2
  1

  9
$DIMSTYLE
  2
STANDARD
  9
$DIMCLRD
 70
     0
  9
$DIMCLRE
 70
     0
  9
$DIMCLRT
 70
     0
  9
$DIMTFAC
 40
1.0
  9
$DIMGAP
 40
0.09
  9
$DIMJUST
 70
     0
  9
$DIMSD1
 70
     0
  9
$DIMSD2
 70
     0
  9
$DIMTOLJ
 70
     1
  9
$DIMTZIN
 70
     0
  9
$DIMALTZ
 70
     0
  9
$DIMALTTZ
 70
     0
  9
$DIMFIT
 70
     3
  9
$DIMUPT
 70
     0
  9
$DIMUNIT
 70
     2
  9
$DIMDEC
 70
     4
  9
$DIMTDEC
 70
     4
  9
$DIMALTU
 70
     2
  9
$DIMALTTD
 70
     2
  9
$DIMTXSTY
  7
STANDARD
  9
$DIMAUNIT
 70
     0
  9
$LUNITS
 70
     2
  9
$LUPREC
 70
     4
  9
$SKETCHINC
 40
0.1
  9
$FILLETRAD
 40
0.0
  9
$AUNITS
 70
     0
  9
$AUPREC
 70
     0
  9
$MENU
  1
acad
  9
$ELEVATION
 40
0.0
  9
$PELEVATION
 40
0.0
  9
$THICKNESS
 40
0.0
  9
$LIMCHECK
 70
     0
  9
$BLIPMODE
 70
     1
  9
$CHAMFERA
 40
0.0
  9
$CHAMFERB
 40
0.0
  9
$CHAMFERC
 40
0.0
  9
$CHAMFERD
 40
0.0
  9
$SKPOLY
 70
     0
  9
$TDCREATE
 40
0.000000000
  9
$TDUPDATE
 40
0.000000000
  9
$TDINDWG
 40
0.0000000000
  9
$TDUSRTIMER
 40
0.0000000000
  9
$USRTIMER
 70
     1
  9
$ANGBASE
 50
0.0
  9
$ANGDIR
 70
     0
  9
$PDMODE
 70
     0
  9
$PDSIZE
 40
0.0
  9
$PLINEWID
 40
0.0
  9
$COORDS
 70
     0
  9
$SPLFRAME
 70
     0
  9
$SPLINETYPE
 70
     6
  9
$SPLINESEGS
 70
     8
  9
$ATTDIA
 70
     0
  9
$ATTREQ
 70
     1
  9
$HANDLING
 70
     1
  9
$HANDSEED
  5
9B
  9
$SURFTAB1
 70
     6
  9
$SURFTAB2
 70
     6
  9
$SURFTYPE
 70
     6
  9
$SURFU
 70
     6
  9
$SURFV
 70
     6
  9
$UCSNAME
  2

  9
$UCSORG
 10
0.0
 20
0.0
 30
0.0
  9
$UCSXDIR
 10
1.0
 20
0.0
 30
0.0
  9
$UCSYDIR
 10
0.0
 20
1.0
 30
0.0
  9
$PUCSNAME
  2

  9
$PUCSORG
 10
0.0
 20
0.0
 30
0.0
  9
$PUCSXDIR
 10
1.0
 20
0.0
 30
0.0
  9
$PUCSYDIR
 10
0.0
 20
1.0
 30
0.0
  9
$USERI1
 70
     0
  9
$USERI2
 70
     0
  9
$USERI3
 70
     0
  9
$USERI4
 70
     0
  9
$USERI5
 70
     0
  9
$USERR1
 40
0.0
  9
$USERR2
 40
0.0
  9
$USERR3
 40
0.0
  9
$USERR4
 40
0.0
  9
$USERR5
 40
0.0
  9
$WORLDVIEW
 70
     1
  9
$SHADEDGE
 70
     3
  9
$SHADEDIF
 70
    70
  9
$TILEMODE
 70
     1
  9
$MAXACTVP
 70
    16
  9
$PINSBASE
 10
0.0
 20
0.0
 30
0.0
  9
$PLIMCHECK
 70
     0
  9
$PEXTMIN
 10
1.000000E+20
 20
1.000000E+20
 30
1.000000E+20
  9
$PEXTMAX
 10
-1.000000E+20
 20
-1.000000E+20
 30
-1.000000E+20
  9
$PLIMMIN
 10
0.0
 20
0.0
  9
$PLIMMAX
 10
12.0
 20
9.0
  9
$UNITMODE
 70
     0
  9
$VISRETAIN
 70
     0
  9
$PLINEGEN
 70
     1
  9
$PSLTSCALE
 70
     0
  9
$TREEDEPTH
 70
  3020
  9
$PICKSTYLE
 70
     1
  9
$CMLSTYLE
  2
STANDARD
  9
$CMLJUST
 70
     0
  9
$CMLSCALE
 40
1.0
  9
$PROXYGRAPHICS
 70
     0
  9
$MEASUREMENT
 70
     0
  0
ENDSEC
  0
SECTION
  2
CLASSES
  0
CLASS
  1
LWPOLYLINE
  2
AcDbPolyline
  3
"AutoCAD"
 90
        0
280
     0
281
     1
  0
CLASS
  1
IMAGE
  2
AcDbRasterImage
  3
ISM
 90
      127
280
     0
281
     1
  0
CLASS
  1
OLE2FRAME
  2
AcDbOle2Frame
  3
""
 90
        0
280
     0
281
     1
  0
CLASS
  1
HATCH
  2
AcDbHatch
  3
"ACAD_SEDONA"
 90
        0
280
     0
281
     1
  0
CLASS
  1
DICTIONARYVAR
  2
AcDbDictionaryVar
  3
"AutoCAD"
 90
        0
280
     0
281
     0
  0
CLASS
  1
RASTERVARIABLES
  2
AcDbRasterVariables
  3
ISM
 90
        0
280
     0
281
     0
  0
CLASS
  1
IMAGEDEF
  2
AcDbRasterImageDef
  3
ISM
 90
        0
280
     0
281
     0
  0
CLASS
  1
IMAGEDEF_REACTOR
  2
AcDbRasterImageDefReactor
  3
ISM
 90
        1
280
     0
281
     0
  0
CLASS
  1
IDBUFFER
  2
AcDbIdBuffer
  3
"Acad"
 90
        0
280
     0
281
     0
  0
CLASS
  1
SPATIAL_FILTER
  2
AcDbSpatialFilter
  3
"Acad"
 90
        0
280
     0
281
     0
  0
CLASS
  1
XRECORD
  2
AcDbXrecord
  3
"<Built In>"
 90
        0
280
     0
281
     0
  0
CLASS
  1
SORTENTSTABLE
  2
AcDbSortentsTable
  3
"AutoCAD"
 90
        0
280
     0
281
     0
  0
CLASS
  1
LAYER_INDEX
  2
AcDbLayerIndex
  3
"Acad"
 90
        0
280
     0
281
     0
  0
CLASS
  1
SPATIAL_INDEX
  2
AcDbSpatialIndex
  3
"Acad"
 90
        0
280
     0
281
     0
  0
CLASS
  1
OBJECT_PTR
  2
CAseDLPNTableRecord
  3
"ASE-LPNTableRecord"
 90
        1
280
     0
281
     0
  0
CLASS
  1
LAYOUT
  2
AcDbLayout
  3
"AutoCAD 2000"
 90
        1
280
     0
281
     0
  0
CLASS
  1
PLOTSETTINGS
  2
AcDbPlotSettings
  3
"AutoCAD 2000"
 90
        1
280
     0
281
     0
  0
CLASS
  1
ACDBDICTIONARYWDFLT
  2
AcDbDictionaryWithDefault
  3
"AutoCAD 2000"
 90
        1
280
     0
281
     0
  0
CLASS
  1
ACDBPLACEHOLDER
  2
AcDbPlaceHolder
  3
"AutoCAD 2000"
 90
        1
280
     0
281
     0
  0
CLASS
  1
VBA_PROJECT
  2
AcDbVbaProject
  3
"acadvba"
 90
        1
280
     0
281
     0
  0
CLASS
  1
WIPEOUT
  2
AcDbWipeout
  3
WipeOut|AutoCAD Express Tool|expresstools@autodesk.com
 90
      127
280
     0
281
     1
  0
CLASS
  1
WIPEOUTVARIABLES
  2
AcDbWipeoutVariables
  3
WipeOut|AutoCAD Express Tool|expresstools@autodesk.com
 90
        0
280
     0
281
     0
  0
CLASS
  1
RTEXT
  2
RText
  3
RText|AutoCAD Express Tool|expresstools@autodesk.com
 90
        0
280
     0
281
     1
  0
CLASS
  1
ARCALIGNEDTEXT
  2
AcDbArcAlignedText
  3
ATEXT|AutoCAD Express Tool|expresstools@autodesk.com
 90
        0
280
     0
281
     1
  0
ENDSEC
  0
SECTION
  2
TABLES
  0
TABLE
  2
VPORT
  5
7
100
AcDbSymbolTable
 70
     1
  0
VPORT
  5
15
100
AcDbSymbolTableRecord
100
AcDbViewportTableRecord
  2
*ACTIVE
 70
     0
 10
0.0
 20
0.0
 11
1.0
 21
1.0
 12
6.591288
 22
4.579184
 13
0.0
 23
0.0
 14
1.0
 24
1.0
 15
0.0
 25
0.0
 16
0.0
 26
0.0
 36
1.0
 17
0.0
 27
0.0
 37
0.0
 40
9.158369
 41
0.688564
 42
50.0
 43
0.0
 44
0.0
 50
0.0
 51
0.0
 71
     0
 72
   100
 73
     1
 74
     1
 75
     0
 76
     0
 77
     0
 78
     0
  0
ENDTAB
  0
TABLE
  2
LTYPE
  5
4
100
AcDbSymbolTable
 70
     3
  0
LTYPE
  5
11
100
AcDbSymbolTableRecord
100
AcDbLinetypeTableRecord
  2
BYBLOCK
 70
    64
  3

 72
    65
 73
     0
 40
0.0
  0
LTYPE
  5
12
100
AcDbSymbolTableRecord
100
AcDbLinetypeTableRecord
  2
BYLAYER
 70
    64
  3

 72
    65
 73
     0
 40
0.0
  0
LTYPE
  5
13
100
AcDbSymbolTableRecord
100
AcDbLinetypeTableRecord
  2
CONTINUOUS
 70
    64
  3
Solid line
 72
    65
 73
     0
 40
0.0
  0
ENDTAB
  0
TABLE
  2
LAYER
  5
2
100
AcDbSymbolTable
 70
     2
  0
LAYER
  5
14
100
AcDbSymbolTableRecord
100
AcDbLayerTableRecord
  2
0
 70
     0
 62
     7
  6
CONTINUOUS
  0
LAYER
  5
21
100
AcDbSymbolTableRecord
100
AcDbLayerTableRecord
  2
LAYER_1
 70
     0
 62
   160
  6
CONTINUOUS
  0
ENDTAB
  0
TABLE
  2
STYLE
  5
3
100
AcDbSymbolTable
 70
     5
  0
STYLE
  5
17
100
AcDbSymbolTableRecord
100
AcDbTextStyleTableRecord
  2
STANDARD
 70
     0
 40
0.0
 41
1.0
 50
0.0
 71
     0
 42
0.0
  3
txt
  4

  0
STYLE
  5
1D
100
AcDbSymbolTableRecord
100
AcDbTextStyleTableRecord
  2
STD
 70
     0
 40
0.0
 41
1.0
 50
0.0
 71
     0
 42
0.0
  3
txt
  4

  0
STYLE
  5
1E
100
AcDbSymbolTableRecord
100
AcDbTextStyleTableRecord
  2
TATESTD
 70
     4
 40
0.0
 41
1.0
 50
0.0
 71
     0
 42
0.0
  3
txt
  4

  0
STYLE
  5
1F
100
AcDbSymbolTableRecord
100
AcDbTextStyleTableRecord
  2
KANJISTD
 70
     0
 40
0.0
 41
1.0
 50
0.0
 71
     0
 42
0.0
  3
txt
  4
extfont
  0
STYLE
  5
20
100
AcDbSymbolTableRecord
100
AcDbTextStyleTableRecord
  2
KANJITATE
 70
     4
 40
0.0
 41
1.0
 50
0.0
 71
     0
 42
0.0
  3
txt
  4
extfont
  0
ENDTAB
  0
TABLE
  2
VIEW
  5
5
100
AcDbSymbolTable
 70
     0
  0
ENDTAB
  0
TABLE
  2
UCS
  5
6
100
AcDbSymbolTable
 70
     0
  0
ENDTAB
  0
TABLE
  2
APPID
  5
8
100
AcDbSymbolTable
 70
     1
  0
APPID
  5
16
100
AcDbSymbolTableRecord
100
AcDbRegAppTableRecord
  2
ACAD
 70
     0
  0
ENDTAB
  0
TABLE
  2
DIMSTYLE
  5
9
100
AcDbSymbolTable
 70
     1
  0
DIMSTYLE
105
18
100
AcDbSymbolTableRecord
100
AcDbDimStyleTableRecord
  2
STANDARD
 70
     0
  3

  4

  5

  6

  7

 40
1.0
 41
0.18
 42
0.0625
 43
0.38
 44
0.18
 45
0.0
 46
0.0
 47
0.0
 48
0.0
 71
     0
 72
     0
 73
     1
 74
     1
 75
     0
 76
     0
 77
     0
 78
     0
140
0.18
141
0.09
142
0.0
143
25.4
144
1.0
145
0.0
146
1.0
147
0.09
170
     0
171
     2
172
     0
173
     0
174
     0
175
     0
176
     0
177
     0
178
     0
270
     2
271
     4
272
     4
273
     2
274
     2
275
     0
280
     0
281
     0
282
     0
283
     1
284
     0
285
     0
286
     0
287
     0
288
     0
340
17
  0
ENDTAB
  0
TABLE
  2
BLOCK_RECORD
  5
1
100
AcDbSymbolTable
 70
     4
  0
BLOCK_RECORD
  5
A
100
AcDbSymbolTableRecord
100
AcDbBlockTableRecord
  2
*MODEL_SPACE
  0
BLOCK_RECORD
  5
B
100
AcDbSymbolTableRecord
100
AcDbBlockTableRecord
  2
*PAPER_SPACE
  0
BLOCK_RECORD
  5
2E
100
AcDbSymbolTableRecord
100
AcDbBlockTableRecord
  2
AI9-BLK1
  0
BLOCK_RECORD
  5
4D
100
AcDbSymbolTableRecord
100
AcDbBlockTableRecord
  2
AI9-BLK2
  0
BLOCK_RECORD
  5
68
100
AcDbSymbolTableRecord
100
AcDbBlockTableRecord
  2
AI9-BLK3
  0
BLOCK_RECORD
  5
74
100
AcDbSymbolTableRecord
100
AcDbBlockTableRecord
  2
AI9-BLK4
  0
ENDTAB
  0
ENDSEC
  0
SECTION
  2
BLOCKS
  0
BLOCK
  5
D
100
AcDbEntity
  8
0
100
AcDbBlockBegin
  2
*MODEL_SPACE
 70
     0
 10
0.0
 20
0.0
 30
0.0
  3
*MODEL_SPACE
  1

  0
ENDBLK
  5
E
100
AcDbEntity
  8
0
100
AcDbBlockEnd
  0
BLOCK
  5
F
100
AcDbEntity
 67
     1
  8
0
100
AcDbBlockBegin
  2
*PAPER_SPACE
 70
     0
 10
0.0
 20
0.0
 30
0.0
  3
*PAPER_SPACE
  1

  0
ENDBLK
  5
10
100
AcDbEntity
 67
     1
  8
0
100
AcDbBlockEnd
  0
BLOCK
  5
30
100
AcDbEntity
  8
LAYER_1
 62
     7
100
AcDbBlockBegin
  2
AI9-BLK1
 70
     0
 10
0.0
 20
0.0
 30
0.0
  3
AI9-BLK1
  1

  0
HATCH
  5
44
100
AcDbEntity
  8
LAYER_1
 62
     7
100
AcDbHatch
 10
0.0
 20
0.0
 30
0.0
210
0.0
220
0.0
230
1.0
  2
SOLID
 70
     1
 71
     0
 91
        1
 92
        1
 93
        1
 72
     4
 94
        3
 73
     0
 74
     0
 95
       35
 96
       31
 40
0.0
 40
0.0
 40
0.0
 40
0.0
 40
1.0
 40
1.0
 40
1.0
 40
2.0
 40
2.0
 40
2.0
 40
3.0
 40
3.0
 40
3.0
 40
4.0
 40
4.0
 40
4.0
 40
5.0
 40
5.0
 40
5.0
 40
6.0
 40
6.0
 40
6.0
 40
7.0
 40
7.0
 40
7.0
 40
8.0
 40
8.0
 40
8.0
 40
9.0
 40
9.0
 40
9.0
 40
10.0
 40
10.0
 40
10.0
 40
10.0
 10
-41.312723795572914
 20
2.7472913953993054
 10
-41.312723795572914
 20
2.7472913953993054
 10
-38.239181857638883
 20
2.7472913953993054
 10
-38.239181857638883
 20
2.7472913953993054
 10
-38.239181857638883
 20
2.7472913953993054
 10
-38.239181857638883
 20
2.1292412651909722
 10
-38.239181857638883
 20
2.1292412651909722
 10
-38.239181857638883
 20
2.1292412651909722
 10
-40.56754964192708
 20
2.1292412651909722
 10
-40.56754964192708
 20
2.1292412651909722
 10
-40.56754964192708
 20
2.1292412651909722
 10
-40.56754964192708
 20
0.2327162000868056
 10
-40.56754964192708
 20
0.2327162000868056
 10
-40.56754964192708
 20
0.2327162000868056
 10
-38.417121039496521
 20
0.2327162000868056
 10
-38.417121039496521
 20
0.2327162000868056
 10
-38.417121039496521
 20
0.2327162000868056
 10
-38.417121039496521
 20
-0.37672119140625
 10
-38.417121039496521
 20
-0.37672119140625
 10
-38.417121039496521
 20
-0.37672119140625
 10
-40.56754964192708
 20
-0.37672119140625
 10
-40.56754964192708
 20
-0.37672119140625
 10
-40.56754964192708
 20
-0.37672119140625
 10
-40.56754964192708
 20
-2.9591647677951385
 10
-40.56754964192708
 20
-2.9591647677951385
 10
-40.56754964192708
 20
-2.9591647677951385
 10
-41.312723795572914
 20
-2.9591647677951385
 10
-41.312723795572914
 20
-2.9591647677951385
 10
-41.312723795572914
 20
-2.9591647677951385
 10
-41.312723795572914
 20
2.7472913953993054
 10
-41.312723795572914
 20
2.7472913953993054
 97
        0
 75
     0
 76
     1
 98
        1
 10
0.0
 20
0.0
  0
HATCH
  5
43
100
AcDbEntity
  8
LAYER_1
 62
     7
100
AcDbHatch
 10
0.0
 20
0.0
 30
0.0
210
0.0
220
0.0
230
1.0
  2
SOLID
 70
     1
 71
     0
 91
        1
 92
        1
 93
        1
 72
     4
 94
        3
 73
     0
 74
     0
 95
       17
 96
       13
 40
0.0
 40
0.0
 40
0.0
 40
0.0
 40
1.0
 40
1.0
 40
1.0
 40
2.0
 40
2.0
 40
2.0
 40
3.0
 40
3.0
 40
3.0
 40
4.0
 40
4.0
 40
4.0
 40
4.0
 10
-37.350174967447913
 20
3.0521823459201385
 10
-37.350174967447913
 20
3.0521823459201385
 10
-36.605173068576384
 20
3.0521823459201385
 10
-36.605173068576384
 20
3.0521823459201385
 10
-36.605173068576384
 20
3.0521823459201385
 10
-36.605173068576384
 20
-2.9591647677951385
 10
-36.605173068576384
 20
-2.9591647677951385
 10
-36.605173068576384
 20
-2.9591647677951385
 10
-37.350174967447913
 20
-2.9591647677951385
 10
-37.350174967447913
 20
-2.9591647677951385
 10
-37.350174967447913
 20
-2.9591647677951385
 10
-37.350174967447913
 20
3.0521823459201385
 10
-37.350174967447913
 20
3.0521823459201385
 97
        0
 75
     0
 76
     1
 98
        1
 10
0.0
 20
0.0
  0
HATCH
  5
42
100
AcDbEntity
  8
LAYER_1
 62
     7
100
AcDbHatch
 10
0.0
 20
0.0
 30
0.0
210
0.0
220
0.0
230
1.0
  2
SOLID
 70
     1
 71
     0
 91
        2
 92
       16
 93
        1
 72
     4
 94
        3
 73
     0
 74
     0
 95
       20
 96
       16
 40
0.0
 40
0.0
 40
0.0
 40
0.0
 40
1.0
 40
1.0
 40
1.0
 40
2.0
 40
2.0
 40
2.0
 40
3.0
 40
3.0
 40
3.0
 40
4.0
 40
4.0
 40
4.0
 40
5.0
 40
5.0
 40
5.0
 40
5.0
 10
-33.210031467013884
 20
-0.8679918077256944
 10
-34.0229017469618
 20
-0.8511108398437499
 10
-34.945842827690967
 20
-0.9947713216145833
 10
-34.945842827690967
 20
-1.7905883789062498
 10
-34.945842827690967
 20
-2.281858995225694
 10
-34.624070909288193
 20
-2.5020005967881942
 10
-34.251483832465276
 20
-2.5020005967881942
 10
-33.709570312499999
 20
-2.5020005967881942
 10
-33.362476942274306
 20
-2.163347710503472
 10
-33.243965657552081
 20
-1.8160820855034721
 10
-33.218471950954857
 20
-1.7399454752604164
 10
-33.210031467013884
 20
-1.6551961263020831
 10
-33.210031467013884
 20
-1.5790595160590277
 10
-33.210031467013884
 20
-1.5790595160590277
 10
-33.210031467013884
 20
-0.8679918077256944
 10
-33.210031467013884
 20
-0.8679918077256944
 97
        0
 92
        1
 93
        1
 72
     4
 94
        3
 73
     0
 74
     0
 95
       47
 96
       43
 40
0.0
 40
0.0
 40
0.0
 40
0.0
 40
1.0
 40
1.0
 40
1.0
 40
2.0
 40
2.0
 40
2.0
 40
3.0
 40
3.0
 40
3.0
 40
4.0
 40
4.0
 40
4.0
 40
5.0
 40
5.0
 40
5.0
 40
6.0
 40
6.0
 40
6.0
 40
7.0
 40
7.0
 40
7.0
 40
8.0
 40
8.0
 40
8.0
 40
9.0
 40
9.0
 40
9.0
 40
10.0
 40
10.0
 40
10.0
 40
11.0
 40
11.0
 40
11.0
 40
12.0
 40
12.0
 40
12.0
 40
13.0
 40
13.0
 40
13.0
 40
14.0
 40
14.0
 40
14.0
 40
14.0
 10
-32.481910536024301
 20
-1.976968044704861
 10
-32.481910536024301
 20
-2.3325018988715276
 10
-32.465029568142356
 20
-2.6797675238715275
 10
-32.422654893663193
 20
-2.9591647677951385
 10
-32.422654893663193
 20
-2.9591647677951385
 10
-33.091520182291667
 20
-2.9591647677951385
 10
-33.091520182291667
 20
-2.9591647677951385
 10
-33.091520182291667
 20
-2.9591647677951385
 10
-33.159216308593749
 20
-2.4427449544270829
 10
-33.159216308593749
 20
-2.4427449544270829
 10
-33.159216308593749
 20
-2.4427449544270829
 10
-33.184710015190966
 20
-2.4427449544270829
 10
-33.184710015190966
 20
-2.4427449544270829
 10
-33.404851616753469
 20
-2.7645168728298608
 10
-33.85357530381944
 20
-3.0521823459201385
 10
-34.437691243489581
 20
-3.0521823459201385
 10
-35.267442491319443
 20
-3.0521823459201385
 10
-35.690844726562496
 20
-2.4682386610243054
 10
-35.690844726562496
 20
-1.8753377278645831
 10
-35.690844726562496
 20
-0.8848727756076388
 10
-34.810278320312499
 20
-0.3429592556423611
 10
-33.227084689670136
 20
-0.3515719943576389
 10
-33.227084689670136
 20
-0.3515719943576389
 10
-33.227084689670136
 20
-0.2668226453993056
 10
-33.227084689670136
 20
-0.2668226453993056
 10
-33.227084689670136
 20
0.0718302408854167
 10
-33.320102267795136
 20
0.6898803710937499
 10
-34.15829399956597
 20
0.6816121419270833
 10
-34.547762044270833
 20
0.6816121419270833
 10
-34.945842827690967
 20
0.5713690863715277
 10
-35.233680555555551
 20
0.37672119140625
 10
-35.233680555555551
 20
0.37672119140625
 10
-35.403006998697911
 20
0.876260036892361
 10
-35.403006998697911
 20
0.876260036892361
 10
-35.064354112413191
 20
1.0877888997395833
 10
-34.564815266927077
 20
1.2317938910590276
 10
-34.048223198784719
 20
1.2317938910590276
 10
-32.786801486545137
 20
1.2317938910590276
 10
-32.481910536024301
 20
0.37672119140625
 10
-32.481910536024301
 20
-0.4445895724826389
 10
-32.481910536024301
 20
-0.4445895724826389
 10
-32.481910536024301
 20
-1.976968044704861
 10
-32.481910536024301
 20
-1.976968044704861
 97
        0
 75
     0
 76
     1
 98
        1
 10
0.0
 20
0.0
  0
HATCH
  5
41
100
AcDbEntity
  8
LAYER_1
 62
     7
100
AcDbHatch
 10
0.0
 20
0.0
 30
0.0
210
0.0
220
0.0
230
1.0
  2
SOLID
 70
     1
 71
     0
 91
        1
 92
        1
 93
        1
 72
     4
 94
        3
 73
     0
 74
     0
 95
       56
 96
       52
 40
0.0
 40
0.0
 40
0.0
 40
0.0
 40
1.0
 40
1.0
 40
1.0
 40
2.0
 40
2.0
 40
2.0
 40
3.0
 40
3.0
 40
3.0
 40
4.0
 40
4.0
 40
4.0
 40
5.0
 40
5.0
 40
5.0
 40
6.0
 40
6.0
 40
6.0
 40
7.0
 40
7.0
 40
7.0
 40
8.0
 40
8.0
 40
8.0
 40
9.0
 40
9.0
 40
9.0
 40
10.0
 40
10.0
 40
10.0
 40
11.0
 40
11.0
 40
11.0
 40
12.0
 40
12.0
 40
12.0
 40
13.0
 40
13.0
 40
13.0
 40
14.0
 40
14.0
 40
14.0
 40
15.0
 40
15.0
 40
15.0
 40
16.0
 40
16.0
 40
16.0
 40
17.0
 40
17.0
 40
17.0
 40
17.0
 10
-30.424499511718746
 20
2.1209730360243055
 10
-30.424499511718746
 20
2.1209730360243055
 10
-30.424499511718746
 20
1.1387763129340276
 10
-30.424499511718746
 20
1.1387763129340276
 10
-30.424499511718746
 20
1.1387763129340276
 10
-29.35772569444444
 20
1.1387763129340276
 10
-29.35772569444444
 20
1.1387763129340276
 10
-29.35772569444444
 20
1.1387763129340276
 10
-29.35772569444444
 20
0.5713690863715277
 10
-29.35772569444444
 20
0.5713690863715277
 10
-29.35772569444444
 20
0.5713690863715277
 10
-30.424499511718746
 20
0.5713690863715277
 10
-30.424499511718746
 20
0.5713690863715277
 10
-30.424499511718746
 20
0.5713690863715277
 10
-30.424499511718746
 20
-1.6383151584201388
 10
-30.424499511718746
 20
-1.6383151584201388
 10
-30.424499511718746
 20
-2.1464667426215276
 10
-30.280666775173607
 20
-2.4341322157118053
 10
-29.865705023871524
 20
-2.4341322157118053
 10
-29.662616644965276
 20
-2.4341322157118053
 10
-29.544105360243051
 20
-2.4172512478298609
 10
-29.434034559461804
 20
-2.3834893120659721
 10
-29.434034559461804
 20
-2.3834893120659721
 10
-29.40010036892361
 20
-2.9505520290798608
 10
-29.40010036892361
 20
-2.9505520290798608
 10
-29.544105360243051
 20
-3.0015394422743054
 10
-29.772687445746524
 20
-3.0521823459201385
 10
-30.060525173611108
 20
-3.0521823459201385
 10
-30.407618543836804
 20
-3.0521823459201385
 10
-30.687015787760412
 20
-2.9336710611979164
 10
-30.864782714843749
 20
-2.7390231662326388
 10
-31.068043348524302
 20
-2.5102688259548609
 10
-31.152792697482635
 20
-2.1464667426215276
 10
-31.152792697482635
 20
-1.663808865017361
 10
-31.152792697482635
 20
-1.663808865017361
 10
-31.152792697482635
 20
0.5713690863715277
 10
-31.152792697482635
 20
0.5713690863715277
 10
-31.152792697482635
 20
0.5713690863715277
 10
-31.787723795572912
 20
0.5713690863715277
 10
-31.787723795572912
 20
0.5713690863715277
 10
-31.787723795572912
 20
0.5713690863715277
 10
-31.787723795572912
 20
1.1387763129340276
 10
-31.787723795572912
 20
1.1387763129340276
 10
-31.787723795572912
 20
1.1387763129340276
 10
-31.152792697482635
 20
1.1387763129340276
 10
-31.152792697482635
 20
1.1387763129340276
 10
-31.152792697482635
 20
1.1387763129340276
 10
-31.152792697482635
 20
1.8922186957465277
 10
-31.152792697482635
 20
1.8922186957465277
 10
-31.152792697482635
 20
1.8922186957465277
 10
-30.424499511718746
 20
2.1209730360243055
 10
-30.424499511718746
 20
2.1209730360243055
 97
        0
 75
     0
 76
     1
 98
        1
 10
0.0
 20
0.0
  0
HATCH
  5
40
100
AcDbEntity
  8
LAYER_1
 62
     7
100
AcDbHatch
 10
0.0
 20
0.0
 30
0.0
210
0.0
220
0.0
230
1.0
  2
SOLID
 70
     1
 71
     0
 91
        1
 92
        1
 93
        1
 72
     4
 94
        3
 73
     0
 74
     0
 95
       35
 96
       31
 40
0.0
 40
0.0
 40
0.0
 40
0.0
 40
1.0
 40
1.0
 40
1.0
 40
2.0
 40
2.0
 40
2.0
 40
3.0
 40
3.0
 40
3.0
 40
4.0
 40
4.0
 40
4.0
 40
5.0
 40
5.0
 40
5.0
 40
6.0
 40
6.0
 40
6.0
 40
7.0
 40
7.0
 40
7.0
 40
8.0
 40
8.0
 40
8.0
 40
9.0
 40
9.0
 40
9.0
 40
10.0
 40
10.0
 40
10.0
 40
10.0
 10
-22.720060221354164
 20
-2.7813978407118052
 10
-22.982576497395833
 20
-2.9167900933159721
 10
-23.532758246527777
 20
-3.0521823459201385
 10
-24.227117241753469
 20
-3.0521823459201385
 10
-25.835804578993052
 20
-3.0521823459201385
 10
-27.038142903645831
 20
-2.0362236870659722
 10
-27.038142903645831
 20
-0.15657958984375
 10
-27.038142903645831
 20
1.6383151584201388
 10
-25.827364095052079
 20
2.8406534830729164
 10
-24.057790798611109
 20
2.8406534830729164
 10
-23.354991319444441
 20
2.8406534830729164
 10
-22.897827148437496
 20
2.6880357530381942
 10
-22.703179253472221
 20
2.5864054361979165
 10
-22.703179253472221
 20
2.5864054361979165
 10
-22.889386664496527
 20
1.9852362738715277
 10
-22.889386664496527
 20
1.9852362738715277
 10
-23.160343424479166
 20
2.1209730360243055
 10
-23.558251953124998
 20
2.2226033528645832
 10
-24.032297092013888
 20
2.2226033528645832
 10
-25.370199924045135
 20
2.2226033528645832
 10
-26.259034559461803
 20
1.3671861436631942
 10
-26.259034559461803
 20
-0.1314303927951389
 10
-26.259034559461803
 20
-1.5366848415798611
 10
-25.454777018229166
 20
-2.4258639865451386
 10
-24.074671766493054
 20
-2.4258639865451386
 10
-23.61750759548611
 20
-2.4258639865451386
 10
-23.160343424479166
 20
-2.3325018988715276
 10
-22.863892957899303
 20
-2.1888414171006945
 10
-22.863892957899303
 20
-2.1888414171006945
 10
-22.720060221354164
 20
-2.7813978407118052
 10
-22.720060221354164
 20
-2.7813978407118052
 97
        0
 75
     0
 76
     1
 98
        1
 10
0.0
 20
0.0
  0
HATCH
  5
3F
100
AcDbEntity
  8
LAYER_1
 62
     7
100
AcDbHatch
 10
0.0
 20
0.0
 30
0.0
210
0.0
220
0.0
230
1.0
  2
SOLID
 70
     1
 71
     0
 91
        1
 92
        1
 93
        1
 72
     4
 94
        3
 73
     0
 74
     0
 95
       44
 96
       40
 40
0.0
 40
0.0
 40
0.0
 40
0.0
 40
1.0
 40
1.0
 40
1.0
 40
2.0
 40
2.0
 40
2.0
 40
3.0
 40
3.0
 40
3.0
 40
4.0
 40
4.0
 40
4.0
 40
5.0
 40
5.0
 40
5.0
 40
6.0
 40
6.0
 40
6.0
 40
7.0
 40
7.0
 40
7.0
 40
8.0
 40
8.0
 40
8.0
 40
9.0
 40
9.0
 40
9.0
 40
10.0
 40
10.0
 40
10.0
 40
11.0
 40
11.0
 40
11.0
 40
12.0
 40
12.0
 40
12.0
 40
13.0
 40
13.0
 40
13.0
 40
13.0
 10
-21.814172363281248
 20
-0.1396986219618056
 10
-21.814172363281248
 20
0.3429592556423611
 10
-21.822612847222221
 20
0.7577487521701388
 10
-21.848106553819441
 20
1.1387763129340276
 10
-21.848106553819441
 20
1.1387763129340276
 10
-21.196122233072916
 20
1.1387763129340276
 10
-21.196122233072916
 20
1.1387763129340276
 10
-21.196122233072916
 20
1.1387763129340276
 10
-21.162188042534719
 20
0.3343465169270833
 10
-21.162188042534719
 20
0.3343465169270833
 10
-21.162188042534719
 20
0.3343465169270833
 10
-21.136866590711804
 20
0.3343465169270833
 10
-21.136866590711804
 20
0.3343465169270833
 10
-20.950486924913193
 20
0.8848727756076388
 10
-20.493322753906249
 20
1.2317938910590276
 10
-19.993783908420138
 20
1.2317938910590276
 10
-19.91764729817708
 20
1.2317938910590276
 10
-19.858391655815971
 20
1.2235256618923609
 10
-19.790695529513886
 20
1.2063001844618055
 10
-19.790695529513886
 20
1.2063001844618055
 10
-19.790695529513886
 20
0.5121134440104166
 10
-19.790695529513886
 20
0.5121134440104166
 10
-19.875272623697914
 20
0.5207261827256944
 10
-19.951409233940971
 20
0.5289944118923611
 10
-20.053039550781246
 20
0.5289944118923611
 10
-20.578072102864581
 20
0.5289944118923611
 10
-20.950486924913193
 20
0.1310858832465278
 10
-21.052117241753471
 20
-0.4190958658854166
 10
-21.069170464409719
 20
-0.5293389214409722
 10
-21.077610948350692
 20
-0.6478502061631943
 10
-21.077610948350692
 20
-0.7746297200520833
 10
-21.077610948350692
 20
-0.7746297200520833
 10
-21.077610948350692
 20
-2.9591647677951385
 10
-21.077610948350692
 20
-2.9591647677951385
 10
-21.077610948350692
 20
-2.9591647677951385
 10
-21.822612847222221
 20
-2.9591647677951385
 10
-21.822612847222221
 20
-2.9591647677951385
 10
-21.822612847222221
 20
-2.9591647677951385
 10
-21.814172363281248
 20
-0.1396986219618056
 10
-21.814172363281248
 20
-0.1396986219618056
 97
        0
 75
     0
 76
     1
 98
        1
 10
0.0
 20
0.0
  0
HATCH
  5
3E
100
AcDbEntity
  8
LAYER_1
 62
     7
100
AcDbHatch
 10
0.0
 20
0.0
 30
0.0
210
0.0
220
0.0
230
1.0
  2
SOLID
 70
     1
 71
     0
 91
        2
 92
       16
 93
        1
 72
     4
 94
        3
 73
     0
 74
     0
 95
       14
 96
       10
 40
0.0
 40
0.0
 40
0.0
 40
0.0
 40
1.0
 40
1.0
 40
1.0
 40
2.0
 40
2.0
 40
2.0
 40
3.0
 40
3.0
 40
3.0
 40
3.0
 10
-16.505624728732638
 20
-0.50384521484375
 10
-16.497011990017359
 20
-0.0380683051215278
 10
-16.700272623697916
 20
0.7067613389756944
 10
-17.530023871527778
 20
0.7067613389756944
 10
-18.292078993055554
 20
0.7067613389756944
 10
-18.613850911458332
 20
0.0125745985243056
 10
-18.673106553819444
 20
-0.50384521484375
 10
-18.673106553819444
 20
-0.50384521484375
 10
-16.505624728732638
 20
-0.50384521484375
 10
-16.505624728732638
 20
-0.50384521484375
 97
        0
 92
        1
 93
        1
 72
     4
 94
        3
 73
     0
 74
     0
 95
       32
 96
       28
 40
0.0
 40
0.0
 40
0.0
 40
0.0
 40
1.0
 40
1.0
 40
1.0
 40
2.0
 40
2.0
 40
2.0
 40
3.0
 40
3.0
 40
3.0
 40
4.0
 40
4.0
 40
4.0
 40
5.0
 40
5.0
 40
5.0
 40
6.0
 40
6.0
 40
6.0
 40
7.0
 40
7.0
 40
7.0
 40
8.0
 40
8.0
 40
8.0
 40
9.0
 40
9.0
 40
9.0
 40
9.0
 10
-18.681547037760414
 20
-1.0371459960937499
 10
-18.664493815104166
 20
-2.0448364257812499
 10
-18.029562717013889
 20
-2.4596259223090278
 10
-17.28456081814236
 20
-2.4596259223090278
 10
-16.751087782118056
 20
-2.4596259223090278
 10
-16.420875379774305
 20
-2.3666083441840278
 10
-16.149918619791666
 20
-2.256365288628472
 10
-16.149918619791666
 20
-2.256365288628472
 10
-16.0145263671875
 20
-2.7813978407118052
 10
-16.0145263671875
 20
-2.7813978407118052
 10
-16.27687038845486
 20
-2.8999091254340277
 10
-16.73420681423611
 20
-3.0439141167534718
 10
-17.386018880208333
 20
-3.0439141167534718
 10
-18.639172363281247
 20
-3.0439141167534718
 10
-19.401227484809027
 20
-2.2057223849826388
 10
-19.401227484809027
 20
-0.9778903537326388
 10
-19.401227484809027
 20
0.2668226453993056
 10
-18.664493815104166
 20
1.2404066297743055
 10
-17.470768229166666
 20
1.2404066297743055
 10
-16.133037651909721
 20
1.2404066297743055
 10
-15.785944281684026
 20
0.06356201171875
 10
-15.785944281684026
 20
-0.6902248806423611
 10
-15.785944281684026
 20
-0.8424981011284721
 10
-15.794384765624999
 20
-0.9610093858506944
 10
-15.811265733506943
 20
-1.0457587348090276
 10
-15.811265733506943
 20
-1.0457587348090276
 10
-18.681547037760414
 20
-1.0371459960937499
 10
-18.681547037760414
 20
-1.0371459960937499
 97
        0
 75
     0
 76
     1
 98
        1
 10
0.0
 20
0.0
  0
HATCH
  5
3D
100
AcDbEntity
  8
LAYER_1
 62
     7
100
AcDbHatch
 10
0.0
 20
0.0
 30
0.0
210
0.0
220
0.0
230
1.0
  2
SOLID
 70
     1
 71
     0
 91
        2
 92
       16
 93
        1
 72
     4
 94
        3
 73
     0
 74
     0
 95
       26
 96
       22
 40
0.0
 40
0.0
 40
0.0
 40
0.0
 40
1.0
 40
1.0
 40
1.0
 40
2.0
 40
2.0
 40
2.0
 40
3.0
 40
3.0
 40
3.0
 40
4.0
 40
4.0
 40
4.0
 40
5.0
 40
5.0
 40
5.0
 40
6.0
 40
6.0
 40
6.0
 40
7.0
 40
7.0
 40
7.0
 40
7.0
 10
-12.069030761718748
 20
-0.5293389214409722
 10
-12.069030761718748
 20
-0.4277086046006944
 10
-12.077643500434027
 20
-0.3091973198784722
 10
-12.102964952256944
 20
-0.2075670030381944
 10
-12.213035753038193
 20
0.2582099066840278
 10
-12.619384765624998
 20
0.6475056966145832
 10
-13.178179253472221
 20
0.6475056966145832
 10
-13.94867485894097
 20
0.6475056966145832
 10
-14.405839029947915
 20
-0.0298000759548611
 10
-14.405839029947915
 20
-0.9272474500868054
 10
-14.405839029947915
 20
-1.7654391818576387
 10
-13.991049533420137
 20
-2.4510131835937496
 10
-13.195232476128471
 20
-2.4510131835937496
 10
-12.69569363064236
 20
-2.4510131835937496
 10
-12.23835720486111
 20
-2.1123602973090274
 10
-12.102964952256944
 20
-1.5621785481770831
 10
-12.077643500434027
 20
-1.4605482313368054
 10
-12.069030761718748
 20
-1.3589179144965275
 10
-12.069030761718748
 20
-1.2404066297743055
 10
-12.069030761718748
 20
-1.2404066297743055
 10
-12.069030761718748
 20
-0.5293389214409722
 10
-12.069030761718748
 20
-0.5293389214409722
 97
        0
 92
        1
 93
        1
 72
     4
 94
        3
 73
     0
 74
     0
 95
       41
 96
       37
 40
0.0
 40
0.0
 40
0.0
 40
0.0
 40
1.0
 40
1.0
 40
1.0
 40
2.0
 40
2.0
 40
2.0
 40
3.0
 40
3.0
 40
3.0
 40
4.0
 40
4.0
 40
4.0
 40
5.0
 40
5.0
 40
5.0
 40
6.0
 40
6.0
 40
6.0
 40
7.0
 40
7.0
 40
7.0
 40
8.0
 40
8.0
 40
8.0
 40
9.0
 40
9.0
 40
9.0
 40
10.0
 40
10.0
 40
10.0
 40
11.0
 40
11.0
 40
11.0
 40
12.0
 40
12.0
 40
12.0
 40
12.0
 10
-11.324028862847221
 20
3.0521823459201385
 10
-11.324028862847221
 20
3.0521823459201385
 10
-11.324028862847221
 20
-1.9008314344618054
 10
-11.324028862847221
 20
-1.9008314344618054
 10
-11.324028862847221
 20
-2.2649780273437496
 10
-11.315588378906249
 20
-2.6797675238715275
 10
-11.290094672309026
 20
-2.9591647677951385
 10
-11.290094672309026
 20
-2.9591647677951385
 10
-11.958959960937499
 20
-2.9591647677951385
 10
-11.958959960937499
 20
-2.9591647677951385
 10
-11.958959960937499
 20
-2.9591647677951385
 10
-11.992894151475694
 20
-2.2480970594618053
 10
-11.992894151475694
 20
-2.2480970594618053
 10
-11.992894151475694
 20
-2.2480970594618053
 10
-12.009775119357638
 20
-2.2480970594618053
 10
-12.009775119357638
 20
-2.2480970594618053
 10
-12.23835720486111
 20
-2.7052612304687496
 10
-12.72945556640625
 20
-3.0521823459201385
 10
-13.39832085503472
 20
-3.0521823459201385
 10
-14.388958062065971
 20
-3.0521823459201385
 10
-15.15945366753472
 20
-2.2139906141493055
 10
-15.15945366753472
 20
-0.9696221245659722
 10
-15.167894151475693
 20
0.4022148980034722
 10
-14.312821451822915
 20
1.2317938910590276
 10
-13.322184244791666
 20
1.2317938910590276
 10
-12.687080891927081
 20
1.2317938910590276
 10
-12.263850911458333
 20
0.9355156792534721
 10
-12.086083984375
 20
0.6137437608506944
 10
-12.086083984375
 20
0.6137437608506944
 10
-12.069030761718748
 20
0.6137437608506944
 10
-12.069030761718748
 20
0.6137437608506944
 10
-12.069030761718748
 20
0.6137437608506944
 10
-12.069030761718748
 20
3.0521823459201385
 10
-12.069030761718748
 20
3.0521823459201385
 10
-12.069030761718748
 20
3.0521823459201385
 10
-11.324028862847221
 20
3.0521823459201385
 10
-11.324028862847221
 20
3.0521823459201385
 97
        0
 75
     0
 76
     1
 98
        1
 10
0.0
 20
0.0
  0
HATCH
  5
3C
100
AcDbEntity
  8
LAYER_1
 62
     7
100
AcDbHatch
 10
0.0
 20
0.0
 30
0.0
210
0.0
220
0.0
230
1.0
  2
SOLID
 70
     1
 71
     0
 91
        2
 92
        1
 93
        1
 72
     4
 94
        3
 73
     0
 74
     0
 95
       17
 96
       13
 40
0.0
 40
0.0
 40
0.0
 40
0.0
 40
1.0
 40
1.0
 40
1.0
 40
2.0
 40
2.0
 40
2.0
 40
3.0
 40
3.0
 40
3.0
 40
4.0
 40
4.0
 40
4.0
 40
4.0
 10
-10.087928602430555
 20
-2.9591647677951385
 10
-10.087928602430555
 20
-2.9591647677951385
 10
-10.087928602430555
 20
1.1387763129340276
 10
-10.087928602430555
 20
1.1387763129340276
 10
-10.087928602430555
 20
1.1387763129340276
 10
-9.3429267035590264
 20
1.1387763129340276
 10
-9.3429267035590264
 20
1.1387763129340276
 10
-9.3429267035590264
 20
1.1387763129340276
 10
-9.3429267035590264
 20
-2.9591647677951385
 10
-9.3429267035590264
 20
-2.9591647677951385
 10
-9.3429267035590264
 20
-2.9591647677951385
 10
-10.087928602430555
 20
-2.9591647677951385
 10
-10.087928602430555
 20
-2.9591647677951385
 97
        0
 92
        1
 93
        1
 72
     4
 94
        3
 73
     0
 74
     0
 95
       20
 96
       16
 40
0.0
 40
0.0
 40
0.0
 40
0.0
 40
1.0
 40
1.0
 40
1.0
 40
2.0
 40
2.0
 40
2.0
 40
3.0
 40
3.0
 40
3.0
 40
4.0
 40
4.0
 40
4.0
 40
5.0
 40
5.0
 40
5.0
 40
5.0
 10
-9.7323947482638875
 20
1.8922186957465277
 10
-10.011791992187499
 20
1.8922186957465277
 10
-10.197999403211805
 20
2.1123602973090274
 10
-10.197999403211805
 20
2.374876573350694
 10
-10.197999403211805
 20
2.6373928493923611
 10
-10.003351508246526
 20
2.8489217122395831
 10
-9.7153415256076379
 20
2.8489217122395831
 10
-9.4275037977430554
 20
2.8489217122395831
 10
-9.2412963867187496
 20
2.6373928493923611
 10
-9.2412963867187496
 20
2.374876573350694
 10
-9.2412963867187496
 20
2.1123602973090274
 10
-9.4275037977430554
 20
1.8922186957465277
 10
-9.7239542643229164
 20
1.8922186957465277
 10
-9.7239542643229164
 20
1.8922186957465277
 10
-9.7323947482638875
 20
1.8922186957465277
 10
-9.7323947482638875
 20
1.8922186957465277
 97
        0
 75
     0
 76
     1
 98
        1
 10
0.0
 20
0.0
  0
HATCH
  5
3B
100
AcDbEntity
  8
LAYER_1
 62
     7
100
AcDbHatch
 10
0.0
 20
0.0
 30
0.0
210
0.0
220
0.0
230
1.0
  2
SOLID
 70
     1
 71
     0
 91
        1
 92
        1
 93
        1
 72
     4
 94
        3
 73
     0
 74
     0
 95
       56
 96
       52
 40
0.0
 40
0.0
 40
0.0
 40
0.0
 40
1.0
 40
1.0
 40
1.0
 40
2.0
 40
2.0
 40
2.0
 40
3.0
 40
3.0
 40
3.0
 40
4.0
 40
4.0
 40
4.0
 40
5.0
 40
5.0
 40
5.0
 40
6.0
 40
6.0
 40
6.0
 40
7.0
 40
7.0
 40
7.0
 40
8.0
 40
8.0
 40
8.0
 40
9.0
 40
9.0
 40
9.0
 40
10.0
 40
10.0
 40
10.0
 40
11.0
 40
11.0
 40
11.0
 40
12.0
 40
12.0
 40
12.0
 40
13.0
 40
13.0
 40
13.0
 40
14.0
 40
14.0
 40
14.0
 40
15.0
 40
15.0
 40
15.0
 40
16.0
 40
16.0
 40
16.0
 40
17.0
 40
17.0
 40
17.0
 40
17.0
 10
-7.2093790690104163
 20
2.1209730360243055
 10
-7.2093790690104163
 20
2.1209730360243055
 10
-7.2093790690104163
 20
1.1387763129340276
 10
-7.2093790690104163
 20
1.1387763129340276
 10
-7.2093790690104163
 20
1.1387763129340276
 10
-6.142432996961805
 20
1.1387763129340276
 10
-6.142432996961805
 20
1.1387763129340276
 10
-6.142432996961805
 20
1.1387763129340276
 10
-6.142432996961805
 20
0.5713690863715277
 10
-6.142432996961805
 20
0.5713690863715277
 10
-6.142432996961805
 20
0.5713690863715277
 10
-7.2093790690104163
 20
0.5713690863715277
 10
-7.2093790690104163
 20
0.5713690863715277
 10
-7.2093790690104163
 20
0.5713690863715277
 10
-7.2093790690104163
 20
-1.6383151584201388
 10
-7.2093790690104163
 20
-1.6383151584201388
 10
-7.2093790690104163
 20
-2.1464667426215276
 10
-7.0653740776909713
 20
-2.4341322157118053
 10
-6.6505845811631934
 20
-2.4341322157118053
 10
-6.447323947482638
 20
-2.4341322157118053
 10
-6.3288126627604164
 20
-2.4172512478298609
 10
-6.2189141167534716
 20
-2.3834893120659721
 10
-6.2189141167534716
 20
-2.3834893120659721
 10
-6.1848076714409714
 20
-2.9505520290798608
 10
-6.1848076714409714
 20
-2.9505520290798608
 10
-6.3288126627604164
 20
-3.0015394422743054
 10
-6.5572224934895829
 20
-3.0521823459201385
 10
-6.845232476128472
 20
-3.0521823459201385
 10
-7.1924981011284714
 20
-3.0521823459201385
 10
-7.4715508355034714
 20
-2.9336710611979164
 10
-7.6496622721354157
 20
-2.7390231662326388
 10
-7.8527506510416663
 20
-2.5102688259548609
 10
-7.9374999999999991
 20
-2.1464667426215276
 10
-7.9374999999999991
 20
-1.663808865017361
 10
-7.9374999999999991
 20
-1.663808865017361
 10
-7.9374999999999991
 20
0.5713690863715277
 10
-7.9374999999999991
 20
0.5713690863715277
 10
-7.9374999999999991
 20
0.5713690863715277
 10
-8.5724310980902771
 20
0.5713690863715277
 10
-8.5724310980902771
 20
0.5713690863715277
 10
-8.5724310980902771
 20
0.5713690863715277
 10
-8.5724310980902771
 20
1.1387763129340276
 10
-8.5724310980902771
 20
1.1387763129340276
 10
-8.5724310980902771
 20
1.1387763129340276
 10
-7.9374999999999991
 20
1.1387763129340276
 10
-7.9374999999999991
 20
1.1387763129340276
 10
-7.9374999999999991
 20
1.1387763129340276
 10
-7.9374999999999991
 20
1.8922186957465277
 10
-7.9374999999999991
 20
1.8922186957465277
 10
-7.9374999999999991
 20
1.8922186957465277
 10
-7.2093790690104163
 20
2.1209730360243055
 10
-7.2093790690104163
 20
2.1209730360243055
 97
        0
 75
     0
 76
     1
 98
        1
 10
0.0
 20
0.0
  0
HATCH
  5
3A
100
AcDbEntity
  8
LAYER_1
 62
     7
100
AcDbHatch
 10
0.0
 20
0.0
 30
0.0
210
0.0
220
0.0
230
1.0
  2
SOLID
 70
     1
 71
     0
 91
        1
 92
        1
 93
        1
 72
     4
 94
        3
 73
     0
 74
     0
 95
       35
 96
       31
 40
0.0
 40
0.0
 40
0.0
 40
0.0
 40
1.0
 40
1.0
 40
1.0
 40
2.0
 40
2.0
 40
2.0
 40
3.0
 40
3.0
 40
3.0
 40
4.0
 40
4.0
 40
4.0
 40
5.0
 40
5.0
 40
5.0
 40
6.0
 40
6.0
 40
6.0
 40
7.0
 40
7.0
 40
7.0
 40
8.0
 40
8.0
 40
8.0
 40
9.0
 40
9.0
 40
9.0
 40
10.0
 40
10.0
 40
10.0
 40
10.0
 10
0.4952324761284722
 20
-2.7813978407118052
 10
0.2327162000868056
 20
-2.9167900933159721
 10
-0.3174655490451389
 20
-3.0521823459201385
 10
-1.0119967990451388
 20
-3.0521823459201385
 10
-2.6205118815104163
 20
-3.0521823459201385
 10
-3.8228502061631939
 20
-2.0362236870659722
 10
-3.8228502061631939
 20
-0.15657958984375
 10
-3.8228502061631939
 20
1.6383151584201388
 10
-2.6118991427951386
 20
2.8406534830729164
 10
-0.8424981011284721
 20
2.8406534830729164
 10
-0.1396986219618056
 20
2.8406534830729164
 10
0.3174655490451389
 20
2.6880357530381942
 10
0.5121134440104166
 20
2.5864054361979165
 10
0.5121134440104166
 20
2.5864054361979165
 10
0.3260782877604166
 20
1.9852362738715277
 10
0.3260782877604166
 20
1.9852362738715277
 10
0.0549492730034722
 20
2.1209730360243055
 10
-0.3429592556423611
 20
2.2226033528645832
 10
-0.81700439453125
 20
2.2226033528645832
 10
-2.1550794813368053
 20
2.2226033528645832
 10
-3.0439141167534718
 20
1.3671861436631942
 10
-3.0439141167534718
 20
-0.1314303927951389
 10
-3.0439141167534718
 20
-1.5366848415798611
 10
-2.2394843207465276
 20
-2.4258639865451386
 10
-0.8593790690104166
 20
-2.4258639865451386
 10
-0.4022148980034722
 20
-2.4258639865451386
 10
0.0549492730034722
 20
-2.3325018988715276
 10
0.3512274848090278
 20
-2.1888414171006945
 10
0.3512274848090278
 20
-2.1888414171006945
 10
0.4952324761284722
 20
-2.7813978407118052
 10
0.4952324761284722
 20
-2.7813978407118052
 97
        0
 75
     0
 76
     1
 98
        1
 10
0.0
 20
0.0
  0
HATCH
  5
39
100
AcDbEntity
  8
LAYER_1
 62
     7
100
AcDbHatch
 10
0.0
 20
0.0
 30
0.0
210
0.0
220
0.0
230
1.0
  2
SOLID
 70
     1
 71
     0
 91
        2
 92
       16
 93
        1
 72
     4
 94
        3
 73
     0
 74
     0
 95
       20
 96
       16
 40
0.0
 40
0.0
 40
0.0
 40
0.0
 40
1.0
 40
1.0
 40
1.0
 40
2.0
 40
2.0
 40
2.0
 40
3.0
 40
3.0
 40
3.0
 40
4.0
 40
4.0
 40
4.0
 40
5.0
 40
5.0
 40
5.0
 40
5.0
 10
3.5010782877604165
 20
-0.8679918077256944
 10
2.6880357530381942
 20
-0.8511108398437499
 10
1.7650946723090277
 20
-0.9947713216145833
 10
1.7650946723090277
 20
-1.7905883789062498
 10
1.7650946723090277
 20
-2.281858995225694
 10
2.0868665907118054
 20
-2.5020005967881942
 10
2.4592814127604163
 20
-2.5020005967881942
 10
3.0015394422743054
 20
-2.5020005967881942
 10
3.3484605577256943
 20
-2.163347710503472
 10
3.4669718424479163
 20
-1.8160820855034721
 10
3.4924655490451384
 20
-1.7399454752604164
 10
3.5010782877604165
 20
-1.6551961263020831
 10
3.5010782877604165
 20
-1.5790595160590277
 10
3.5010782877604165
 20
-1.5790595160590277
 10
3.5010782877604165
 20
-0.8679918077256944
 10
3.5010782877604165
 20
-0.8679918077256944
 97
        0
 92
        1
 93
        1
 72
     4
 94
        3
 73
     0
 74
     0
 95
       47
 96
       43
 40
0.0
 40
0.0
 40
0.0
 40
0.0
 40
1.0
 40
1.0
 40
1.0
 40
2.0
 40
2.0
 40
2.0
 40
3.0
 40
3.0
 40
3.0
 40
4.0
 40
4.0
 40
4.0
 40
5.0
 40
5.0
 40
5.0
 40
6.0
 40
6.0
 40
6.0
 40
7.0
 40
7.0
 40
7.0
 40
8.0
 40
8.0
 40
8.0
 40
9.0
 40
9.0
 40
9.0
 40
10.0
 40
10.0
 40
10.0
 40
11.0
 40
11.0
 40
11.0
 40
12.0
 40
12.0
 40
12.0
 40
13.0
 40
13.0
 40
13.0
 40
14.0
 40
14.0
 40
14.0
 40
14.0
 10
4.2290269639756941
 20
-1.976968044704861
 10
4.2290269639756941
 20
-2.3325018988715276
 10
4.2459079318576389
 20
-2.6797675238715275
 10
4.2882826063368054
 20
-2.9591647677951385
 10
4.2882826063368054
 20
-2.9591647677951385
 10
3.6195895724826386
 20
-2.9591647677951385
 10
3.6195895724826386
 20
-2.9591647677951385
 10
3.6195895724826386
 20
-2.9591647677951385
 10
3.5517211914062496
 20
-2.4427449544270829
 10
3.5517211914062496
 20
-2.4427449544270829
 10
3.5517211914062496
 20
-2.4427449544270829
 10
3.5262274848090276
 20
-2.4427449544270829
 10
3.5262274848090276
 20
-2.4427449544270829
 10
3.3060858832465274
 20
-2.7645168728298608
 10
2.8575344509548608
 20
-3.0521823459201385
 10
2.2732462565104163
 20
-3.0521823459201385
 10
1.4436672634548611
 20
-3.0521823459201385
 10
1.0199205186631943
 20
-2.4682386610243054
 10
1.0199205186631943
 20
-1.8753377278645831
 10
1.0199205186631943
 20
-0.8848727756076388
 10
1.9004869249131944
 20
-0.3429592556423611
 10
3.4838528103298607
 20
-0.3515719943576389
 10
3.4838528103298607
 20
-0.3515719943576389
 10
3.4838528103298607
 20
-0.2668226453993056
 10
3.4838528103298607
 20
-0.2668226453993056
 10
3.4838528103298607
 20
0.0718302408854167
 10
3.3908352322048607
 20
0.6898803710937499
 10
2.5526435004340273
 20
0.6816121419270833
 10
2.163003200954861
 20
0.6816121419270833
 10
1.7650946723090277
 20
0.5713690863715277
 10
1.4774291992187498
 20
0.37672119140625
 10
1.4774291992187498
 20
0.37672119140625
 10
1.3079305013020832
 20
0.876260036892361
 10
1.3079305013020832
 20
0.876260036892361
 10
1.6465833875868054
 20
1.0877888997395833
 10
2.1461222330729166
 20
1.2317938910590276
 10
2.6625420464409721
 20
1.2317938910590276
 10
3.9241360134548606
 20
1.2317938910590276
 10
4.2290269639756941
 20
0.37672119140625
 10
4.2290269639756941
 20
-0.4445895724826389
 10
4.2290269639756941
 20
-0.4445895724826389
 10
4.2290269639756941
 20
-1.976968044704861
 10
4.2290269639756941
 20
-1.976968044704861
 97
        0
 75
     0
 76
     1
 98
        1
 10
0.0
 20
0.0
  0
HATCH
  5
38
100
AcDbEntity
  8
LAYER_1
 62
     7
100
AcDbHatch
 10
0.0
 20
0.0
 30
0.0
210
0.0
220
0.0
230
1.0
  2
SOLID
 70
     1
 71
     0
 91
        1
 92
        1
 93
        1
 72
     4
 94
        3
 73
     0
 74
     0
 95
       44
 96
       40
 40
0.0
 40
0.0
 40
0.0
 40
0.0
 40
1.0
 40
1.0
 40
1.0
 40
2.0
 40
2.0
 40
2.0
 40
3.0
 40
3.0
 40
3.0
 40
4.0
 40
4.0
 40
4.0
 40
5.0
 40
5.0
 40
5.0
 40
6.0
 40
6.0
 40
6.0
 40
7.0
 40
7.0
 40
7.0
 40
8.0
 40
8.0
 40
8.0
 40
9.0
 40
9.0
 40
9.0
 40
10.0
 40
10.0
 40
10.0
 40
11.0
 40
11.0
 40
11.0
 40
12.0
 40
12.0
 40
12.0
 40
13.0
 40
13.0
 40
13.0
 40
13.0
 10
5.4310207790798604
 20
-0.1396986219618056
 10
5.4310207790798604
 20
0.3429592556423611
 10
5.4227525499131941
 20
0.7577487521701388
 10
5.3972588433159716
 20
1.1387763129340276
 10
5.3972588433159716
 20
1.1387763129340276
 10
6.049415418836805
 20
1.1387763129340276
 10
6.049415418836805
 20
1.1387763129340276
 10
6.049415418836805
 20
1.1387763129340276
 10
6.0831773546006938
 20
0.3343465169270833
 10
6.0831773546006938
 20
0.3343465169270833
 10
6.0831773546006938
 20
0.3343465169270833
 10
6.1086710611979163
 20
0.3343465169270833
 10
6.1086710611979163
 20
0.3343465169270833
 10
6.2947062174479163
 20
0.8848727756076388
 10
6.7518703884548605
 20
1.2317938910590276
 10
7.2514092339409713
 20
1.2317938910590276
 10
7.3278903537326379
 20
1.2317938910590276
 10
7.3871459960937491
 20
1.2235256618923609
 10
7.4546698676215275
 20
1.2063001844618055
 10
7.4546698676215275
 20
1.2063001844618055
 10
7.4546698676215275
 20
0.5121134440104166
 10
7.4546698676215275
 20
0.5121134440104166
 10
7.3699205186631938
 20
0.5207261827256944
 10
7.2937839084201386
 20
0.5289944118923611
 10
7.1921535915798609
 20
0.5289944118923611
 10
6.6674655490451382
 20
0.5289944118923611
 10
6.2947062174479163
 20
0.1310858832465278
 10
6.1930759006076386
 20
-0.4190958658854166
 10
6.1761949327256938
 20
-0.5293389214409722
 10
6.1679267035590275
 20
-0.6478502061631943
 10
6.1679267035590275
 20
-0.7746297200520833
 10
6.1679267035590275
 20
-0.7746297200520833
 10
6.1679267035590275
 20
-2.9591647677951385
 10
6.1679267035590275
 20
-2.9591647677951385
 10
6.1679267035590275
 20
-2.9591647677951385
 10
5.4227525499131941
 20
-2.9591647677951385
 10
5.4227525499131941
 20
-2.9591647677951385
 10
5.4227525499131941
 20
-2.9591647677951385
 10
5.4310207790798604
 20
-0.1396986219618056
 10
5.4310207790798604
 20
-0.1396986219618056
 97
        0
 75
     0
 76
     1
 98
        1
 10
0.0
 20
0.0
  0
HATCH
  5
37
100
AcDbEntity
  8
LAYER_1
 62
     7
100
AcDbHatch
 10
0.0
 20
0.0
 30
0.0
210
0.0
220
0.0
230
1.0
  2
SOLID
 70
     1
 71
     0
 91
        2
 92
       16
 93
        1
 72
     4
 94
        3
 73
     0
 74
     0
 95
       26
 96
       22
 40
0.0
 40
0.0
 40
0.0
 40
0.0
 40
1.0
 40
1.0
 40
1.0
 40
2.0
 40
2.0
 40
2.0
 40
3.0
 40
3.0
 40
3.0
 40
4.0
 40
4.0
 40
4.0
 40
5.0
 40
5.0
 40
5.0
 40
6.0
 40
6.0
 40
6.0
 40
7.0
 40
7.0
 40
7.0
 40
7.0
 10
10.93456081814236
 20
-0.5293389214409722
 10
10.93456081814236
 20
-0.4277086046006944
 10
10.925948079427082
 20
-0.3091973198784722
 10
10.900798882378471
 20
-0.2075670030381944
 10
10.790555826822915
 20
0.2582099066840278
 10
10.384034559461805
 20
0.6475056966145832
 10
9.8252400716145818
 20
0.6475056966145832
 10
9.0549167209201382
 20
0.6475056966145832
 10
8.5977525499131939
 20
-0.0298000759548611
 10
8.5977525499131939
 20
-0.9272474500868054
 10
8.5977525499131939
 20
-1.7654391818576387
 10
9.0125420464409718
 20
-2.4510131835937496
 10
9.8083591037326379
 20
-2.4510131835937496
 10
10.307897949218749
 20
-2.4510131835937496
 10
10.765062120225693
 20
-2.1123602973090274
 10
10.900798882378471
 20
-1.5621785481770831
 10
10.925948079427082
 20
-1.4605482313368054
 10
10.93456081814236
 20
-1.3589179144965275
 10
10.93456081814236
 20
-1.2404066297743055
 10
10.93456081814236
 20
-1.2404066297743055
 10
10.93456081814236
 20
-0.5293389214409722
 10
10.93456081814236
 20
-0.5293389214409722
 97
        0
 92
        1
 93
        1
 72
     4
 94
        3
 73
     0
 74
     0
 95
       41
 96
       37
 40
0.0
 40
0.0
 40
0.0
 40
0.0
 40
1.0
 40
1.0
 40
1.0
 40
2.0
 40
2.0
 40
2.0
 40
3.0
 40
3.0
 40
3.0
 40
4.0
 40
4.0
 40
4.0
 40
5.0
 40
5.0
 40
5.0
 40
6.0
 40
6.0
 40
6.0
 40
7.0
 40
7.0
 40
7.0
 40
8.0
 40
8.0
 40
8.0
 40
9.0
 40
9.0
 40
9.0
 40
10.0
 40
10.0
 40
10.0
 40
11.0
 40
11.0
 40
11.0
 40
12.0
 40
12.0
 40
12.0
 40
12.0
 10
11.679734971788193
 20
3.0521823459201385
 10
11.679734971788193
 20
3.0521823459201385
 10
11.679734971788193
 20
-1.9008314344618054
 10
11.679734971788193
 20
-1.9008314344618054
 10
11.679734971788193
 20
-2.2649780273437496
 10
11.68800320095486
 20
-2.6797675238715275
 10
11.713496907552083
 20
-2.9591647677951385
 10
11.713496907552083
 20
-2.9591647677951385
 10
11.044459364149304
 20
-2.9591647677951385
 10
11.044459364149304
 20
-2.9591647677951385
 10
11.044459364149304
 20
-2.9591647677951385
 10
11.010697428385416
 20
-2.2480970594618053
 10
11.010697428385416
 20
-2.2480970594618053
 10
11.010697428385416
 20
-2.2480970594618053
 10
10.993816460503471
 20
-2.2480970594618053
 10
10.993816460503471
 20
-2.2480970594618053
 10
10.765062120225693
 20
-2.7052612304687496
 10
10.274136013454861
 20
-3.0521823459201385
 10
9.6050984700520825
 20
-3.0521823459201385
 10
8.6146335177951379
 20
-3.0521823459201385
 10
7.8443101671006934
 20
-2.2139906141493055
 10
7.8443101671006934
 20
-0.9696221245659722
 10
7.8356974283854157
 20
0.4022148980034722
 10
8.6907701280381939
 20
1.2317938910590276
 10
9.68157958984375
 20
1.2317938910590276
 10
10.316510687934027
 20
1.2317938910590276
 10
10.739912923177082
 20
0.9355156792534721
 10
10.917679850260416
 20
0.6137437608506944
 10
10.917679850260416
 20
0.6137437608506944
 10
10.93456081814236
 20
0.6137437608506944
 10
10.93456081814236
 20
0.6137437608506944
 10
10.93456081814236
 20
0.6137437608506944
 10
10.93456081814236
 20
3.0521823459201385
 10
10.93456081814236
 20
3.0521823459201385
 10
10.93456081814236
 20
3.0521823459201385
 10
11.679734971788193
 20
3.0521823459201385
 10
11.679734971788193
 20
3.0521823459201385
 97
        0
 75
     0
 76
     1
 98
        1
 10
0.0
 20
0.0
  0
HATCH
  5
36
100
AcDbEntity
  8
LAYER_1
 62
     7
100
AcDbHatch
 10
0.0
 20
0.0
 30
0.0
210
0.0
220
0.0
230
1.0
  2
SOLID
 70
     1
 71
     0
 91
        2
 92
       16
 93
        1
 72
     4
 94
        3
 73
     0
 74
     0
 95
       20
 96
       16
 40
0.0
 40
0.0
 40
0.0
 40
0.0
 40
1.0
 40
1.0
 40
1.0
 40
2.0
 40
2.0
 40
2.0
 40
3.0
 40
3.0
 40
3.0
 40
4.0
 40
4.0
 40
4.0
 40
5.0
 40
5.0
 40
5.0
 40
5.0
 10
15.472440592447915
 20
0.0718302408854167
 10
15.472440592447915
 20
0.0718302408854167
 10
16.226227484809026
 20
0.0718302408854167
 10
16.226227484809026
 20
0.0718302408854167
 10
17.013431803385416
 20
0.0718302408854167
 10
17.512970648871526
 20
0.50384521484375
 10
17.512970648871526
 20
1.1556572808159722
 10
17.512970648871526
 20
1.8922186957465277
 10
16.979669867621528
 20
2.2139906141493055
 10
16.200733778211806
 20
2.2139906141493055
 10
15.845199924045138
 20
2.2139906141493055
 10
15.599564615885415
 20
2.1802286783854163
 10
15.472440592447915
 20
2.1461222330729166
 10
15.472440592447915
 20
2.1461222330729166
 10
15.472440592447915
 20
0.0718302408854167
 10
15.472440592447915
 20
0.0718302408854167
 97
        0
 92
        1
 93
        1
 72
     4
 94
        3
 73
     0
 74
     0
 95
       47
 96
       43
 40
0.0
 40
0.0
 40
0.0
 40
0.0
 40
1.0
 40
1.0
 40
1.0
 40
2.0
 40
2.0
 40
2.0
 40
3.0
 40
3.0
 40
3.0
 40
4.0
 40
4.0
 40
4.0
 40
5.0
 40
5.0
 40
5.0
 40
6.0
 40
6.0
 40
6.0
 40
7.0
 40
7.0
 40
7.0
 40
8.0
 40
8.0
 40
8.0
 40
9.0
 40
9.0
 40
9.0
 40
10.0
 40
10.0
 40
10.0
 40
11.0
 40
11.0
 40
11.0
 40
12.0
 40
12.0
 40
12.0
 40
13.0
 40
13.0
 40
13.0
 40
14.0
 40
14.0
 40
14.0
 40
14.0
 10
14.73587917751736
 20
2.6628865559895831
 10
15.108638509114583
 20
2.7390231662326388
 10
15.650207519531248
 20
2.7896660698784719
 10
16.149746365017361
 20
2.7896660698784719
 10
16.937295193142358
 20
2.7896660698784719
 10
17.453715006510414
 20
2.6373928493923611
 10
17.80924886067708
 20
2.3156209309895832
 10
18.088646104600691
 20
2.069985622829861
 10
18.258144802517361
 20
1.6806898328993054
 10
18.258144802517361
 20
1.2317938910590276
 10
18.258144802517361
 20
0.4869642469618055
 10
17.775486924913192
 20
-0.0125745985243056
 10
17.182930501302081
 20
-0.2158352322048611
 10
17.182930501302081
 20
-0.2158352322048611
 10
17.182930501302081
 20
-0.2413289388020833
 10
17.182930501302081
 20
-0.2413289388020833
 10
17.614600965711805
 20
-0.3936021592881944
 10
17.877117241753471
 20
-0.8001234266493055
 10
18.021122233072916
 20
-1.3926798502604165
 10
18.207157389322916
 20
-2.1888414171006945
 10
18.342894151475694
 20
-2.7390231662326388
 10
18.452792697482636
 20
-2.9591647677951385
 10
18.452792697482636
 20
-2.9591647677951385
 10
17.690737575954859
 20
-2.9591647677951385
 10
17.690737575954859
 20
-2.9591647677951385
 10
17.597719997829859
 20
-2.7982788085937496
 10
17.47059597439236
 20
-2.3073527018229165
 10
17.318322753906248
 20
-1.5959404839409721
 10
17.148824055989582
 20
-0.8087361653645833
 10
16.835664876302083
 20
-0.5121134440104166
 10
16.166971842447914
 20
-0.4869642469618055
 10
16.166971842447914
 20
-0.4869642469618055
 10
15.472440592447915
 20
-0.4869642469618055
 10
15.472440592447915
 20
-0.4869642469618055
 10
15.472440592447915
 20
-0.4869642469618055
 10
15.472440592447915
 20
-2.9591647677951385
 10
15.472440592447915
 20
-2.9591647677951385
 10
15.472440592447915
 20
-2.9591647677951385
 10
14.73587917751736
 20
-2.9591647677951385
 10
14.73587917751736
 20
-2.9591647677951385
 10
14.73587917751736
 20
-2.9591647677951385
 10
14.73587917751736
 20
2.6628865559895831
 10
14.73587917751736
 20
2.6628865559895831
 97
        0
 75
     0
 76
     1
 98
        1
 10
0.0
 20
0.0
  0
HATCH
  5
35
100
AcDbEntity
  8
LAYER_1
 62
     7
100
AcDbHatch
 10
0.0
 20
0.0
 30
0.0
210
0.0
220
0.0
230
1.0
  2
SOLID
 70
     1
 71
     0
 91
        2
 92
       16
 93
        1
 72
     4
 94
        3
 73
     0
 74
     0
 95
       14
 96
       10
 40
0.0
 40
0.0
 40
0.0
 40
0.0
 40
1.0
 40
1.0
 40
1.0
 40
2.0
 40
2.0
 40
2.0
 40
3.0
 40
3.0
 40
3.0
 40
3.0
 10
21.890308973524302
 20
-0.50384521484375
 10
21.898577202690969
 20
-0.0380683051215278
 10
21.695316569010416
 20
0.7067613389756944
 10
20.86573757595486
 20
0.7067613389756944
 10
20.10368245442708
 20
0.7067613389756944
 10
19.781910536024302
 20
0.0125745985243056
 10
19.722654893663194
 20
-0.50384521484375
 10
19.722654893663194
 20
-0.50384521484375
 10
21.890308973524302
 20
-0.50384521484375
 10
21.890308973524302
 20
-0.50384521484375
 97
        0
 92
        1
 93
        1
 72
     4
 94
        3
 73
     0
 74
     0
 95
       32
 96
       28
 40
0.0
 40
0.0
 40
0.0
 40
0.0
 40
1.0
 40
1.0
 40
1.0
 40
2.0
 40
2.0
 40
2.0
 40
3.0
 40
3.0
 40
3.0
 40
4.0
 40
4.0
 40
4.0
 40
5.0
 40
5.0
 40
5.0
 40
6.0
 40
6.0
 40
6.0
 40
7.0
 40
7.0
 40
7.0
 40
8.0
 40
8.0
 40
8.0
 40
9.0
 40
9.0
 40
9.0
 40
9.0
 10
19.714042154947915
 20
-1.0371459960937499
 10
19.731267632378472
 20
-2.0448364257812499
 10
20.366198730468749
 20
-2.4596259223090278
 10
21.11137288411458
 20
-2.4596259223090278
 10
21.644673665364582
 20
-2.4596259223090278
 10
21.974713812934027
 20
-2.3666083441840278
 10
22.245842827690971
 20
-2.256365288628472
 10
22.245842827690971
 20
-2.256365288628472
 10
22.381235080295138
 20
-2.7813978407118052
 10
22.381235080295138
 20
-2.7813978407118052
 10
22.118718804253469
 20
-2.8999091254340277
 10
21.661554633246524
 20
-3.0439141167534718
 10
21.009742567274305
 20
-3.0439141167534718
 10
19.756416829427081
 20
-3.0439141167534718
 10
18.994706217447916
 20
-2.2057223849826388
 10
18.994706217447916
 20
-0.9778903537326388
 10
18.994706217447916
 20
0.2668226453993056
 10
19.731267632378472
 20
1.2404066297743055
 10
20.924993218315969
 20
1.2404066297743055
 10
22.262723795572914
 20
1.2404066297743055
 10
22.609989420572916
 20
0.06356201171875
 10
22.609989420572916
 20
-0.6902248806423611
 10
22.609989420572916
 20
-0.8424981011284721
 10
22.601376681857637
 20
-0.9610093858506944
 10
22.584495713975691
 20
-1.0457587348090276
 10
22.584495713975691
 20
-1.0457587348090276
 10
19.714042154947915
 20
-1.0371459960937499
 10
19.714042154947915
 20
-1.0371459960937499
 97
        0
 75
     0
 76
     1
 98
        1
 10
0.0
 20
0.0
  0
HATCH
  5
34
100
AcDbEntity
  8
LAYER_1
 62
     7
100
AcDbHatch
 10
0.0
 20
0.0
 30
0.0
210
0.0
220
0.0
230
1.0
  2
SOLID
 70
     1
 71
     0
 91
        1
 92
        1
 93
        1
 72
     4
 94
        3
 73
     0
 74
     0
 95
       80
 96
       76
 40
0.0
 40
0.0
 40
0.0
 40
0.0
 40
1.0
 40
1.0
 40
1.0
 40
2.0
 40
2.0
 40
2.0
 40
3.0
 40
3.0
 40
3.0
 40
4.0
 40
4.0
 40
4.0
 40
5.0
 40
5.0
 40
5.0
 40
6.0
 40
6.0
 40
6.0
 40
7.0
 40
7.0
 40
7.0
 40
8.0
 40
8.0
 40
8.0
 40
9.0
 40
9.0
 40
9.0
 40
10.0
 40
10.0
 40
10.0
 40
11.0
 40
11.0
 40
11.0
 40
12.0
 40
12.0
 40
12.0
 40
13.0
 40
13.0
 40
13.0
 40
14.0
 40
14.0
 40
14.0
 40
15.0
 40
15.0
 40
15.0
 40
16.0
 40
16.0
 40
16.0
 40
17.0
 40
17.0
 40
17.0
 40
18.0
 40
18.0
 40
18.0
 40
19.0
 40
19.0
 40
19.0
 40
20.0
 40
20.0
 40
20.0
 40
21.0
 40
21.0
 40
21.0
 40
22.0
 40
22.0
 40
22.0
 40
23.0
 40
23.0
 40
23.0
 40
24.0
 40
24.0
 40
24.0
 40
25.0
 40
25.0
 40
25.0
 40
25.0
 10
23.532585991753471
 20
0.02945556640625
 10
23.532585991753471
 20
0.4614705403645833
 10
23.515705023871526
 20
0.8001234266493055
 10
23.49882405598958
 20
1.1387763129340276
 10
23.49882405598958
 20
1.1387763129340276
 10
24.150636121961803
 20
1.1387763129340276
 10
24.150636121961803
 20
1.1387763129340276
 10
24.150636121961803
 20
1.1387763129340276
 10
24.184398057725691
 20
0.4783515082465277
 10
24.184398057725691
 20
0.4783515082465277
 10
24.184398057725691
 20
0.4783515082465277
 10
24.209891764322915
 20
0.4783515082465277
 10
24.209891764322915
 20
0.4783515082465277
 10
24.438646104600693
 20
0.8676472981770833
 10
24.819673665364579
 20
1.2317938910590276
 10
25.505247667100694
 20
1.2317938910590276
 10
26.055773925781249
 20
1.2317938910590276
 10
26.479176161024302
 20
0.8931410047743055
 10
26.656943088107635
 20
0.4104831271701389
 10
26.656943088107635
 20
0.4104831271701389
 10
26.673824055989581
 20
0.4104831271701389
 10
26.673824055989581
 20
0.4104831271701389
 10
26.800603569878469
 20
0.6475056966145832
 10
26.970102267795138
 20
0.81700439453125
 10
27.139256456163192
 20
0.9441284179687499
 10
27.384891764322916
 20
1.1301635742187499
 10
27.647408040364581
 20
1.2317938910590276
 10
28.037048339843746
 20
1.2317938910590276
 10
28.587230088975691
 20
1.2317938910590276
 10
29.391659884982637
 20
0.876260036892361
 10
29.391659884982637
 20
-0.5462198893229167
 10
29.391659884982637
 20
-0.5462198893229167
 10
29.391659884982637
 20
-2.9591647677951385
 10
29.391659884982637
 20
-2.9591647677951385
 10
29.391659884982637
 20
-2.9591647677951385
 10
28.663366699218749
 20
-2.9591647677951385
 10
28.663366699218749
 20
-2.9591647677951385
 10
28.663366699218749
 20
-2.9591647677951385
 10
28.663366699218749
 20
-0.6392374674479167
 10
28.663366699218749
 20
-0.6392374674479167
 10
28.663366699218749
 20
0.15657958984375
 10
28.367088487413191
 20
0.6223564995659722
 10
27.774532063802081
 20
0.6223564995659722
 10
27.342517089843749
 20
0.6223564995659722
 10
27.020745171440971
 20
0.3088528103298611
 10
26.885352918836801
 20
-0.0466810438368056
 10
26.851590983072914
 20
-0.15657958984375
 10
26.826097276475693
 20
-0.2919718424479166
 10
26.826097276475693
 20
-0.4190958658854166
 10
26.826097276475693
 20
-0.4190958658854166
 10
26.826097276475693
 20
-2.9591647677951385
 10
26.826097276475693
 20
-2.9591647677951385
 10
26.826097276475693
 20
-2.9591647677951385
 10
26.098148600260416
 20
-2.9591647677951385
 10
26.098148600260416
 20
-2.9591647677951385
 10
26.098148600260416
 20
-2.9591647677951385
 10
26.098148600260416
 20
-0.50384521484375
 10
26.098148600260416
 20
-0.50384521484375
 10
26.098148600260416
 20
0.15657958984375
 10
25.810138617621526
 20
0.6223564995659722
 10
25.242731391059024
 20
0.6223564995659722
 10
24.78556722005208
 20
0.6223564995659722
 10
24.438646104600693
 20
0.24959716796875
 10
24.320134819878469
 20
-0.1228176540798611
 10
24.277760145399302
 20
-0.2327162000868056
 10
24.26087917751736
 20
-0.3598402235243055
 10
24.26087917751736
 20
-0.4869642469618055
 10
24.26087917751736
 20
-0.4869642469618055
 10
24.26087917751736
 20
-2.9591647677951385
 10
24.26087917751736
 20
-2.9591647677951385
 10
24.26087917751736
 20
-2.9591647677951385
 10
23.532585991753471
 20
-2.9591647677951385
 10
23.532585991753471
 20
-2.9591647677951385
 10
23.532585991753471
 20
-2.9591647677951385
 10
23.532585991753471
 20
0.02945556640625
 10
23.532585991753471
 20
0.02945556640625
 97
        0
 75
     0
 76
     1
 98
        1
 10
0.0
 20
0.0
  0
HATCH
  5
33
100
AcDbEntity
  8
LAYER_1
 62
     7
100
AcDbHatch
 10
0.0
 20
0.0
 30
0.0
210
0.0
220
0.0
230
1.0
  2
SOLID
 70
     1
 71
     0
 91
        2
 92
       16
 93
        1
 72
     4
 94
        3
 73
     0
 74
     0
 95
       20
 96
       16
 40
0.0
 40
0.0
 40
0.0
 40
0.0
 40
1.0
 40
1.0
 40
1.0
 40
2.0
 40
2.0
 40
2.0
 40
3.0
 40
3.0
 40
3.0
 40
4.0
 40
4.0
 40
4.0
 40
5.0
 40
5.0
 40
5.0
 40
5.0
 10
32.287262641059023
 20
-2.4933878580729165
 10
32.998330349392361
 20
-2.4933878580729165
 10
33.53163113064236
 20
-1.8246948242187497
 10
33.53163113064236
 20
-0.8931410047743055
 10
33.53163113064236
 20
-0.1989542643229167
 10
33.184710015190966
 20
0.6729994032118055
 10
32.304143608940969
 20
0.6729994032118055
 10
31.431845431857635
 20
0.6729994032118055
 10
31.05116238064236
 20
-0.1396986219618056
 10
31.05116238064236
 20
-0.9186347113715278
 10
31.05116238064236
 20
-1.8160820855034721
 10
31.558969455295134
 20
-2.4933878580729165
 10
32.278649902343744
 20
-2.4933878580729165
 10
32.278649902343744
 20
-2.4933878580729165
 10
32.287262641059023
 20
-2.4933878580729165
 10
32.287262641059023
 20
-2.4933878580729165
 97
        0
 92
        1
 93
        1
 72
     4
 94
        3
 73
     0
 74
     0
 95
       20
 96
       16
 40
0.0
 40
0.0
 40
0.0
 40
0.0
 40
1.0
 40
1.0
 40
1.0
 40
2.0
 40
2.0
 40
2.0
 40
3.0
 40
3.0
 40
3.0
 40
4.0
 40
4.0
 40
4.0
 40
5.0
 40
5.0
 40
5.0
 40
5.0
 10
32.261768934461806
 20
-3.0521823459201385
 10
31.161060926649302
 20
-3.0521823459201385
 10
30.297375488281247
 20
-2.2394843207465276
 10
30.297375488281247
 20
-0.9441284179687499
 10
30.297375488281247
 20
0.4273640950520833
 10
31.203435601128469
 20
1.2317938910590276
 10
32.329637315538193
 20
1.2317938910590276
 10
33.506481933593747
 20
1.2317938910590276
 10
34.302298990885411
 20
0.37672119140625
 10
34.302298990885411
 20
-0.8679918077256944
 10
34.302298990885411
 20
-2.3917575412326388
 10
33.243965657552081
 20
-3.0521823459201385
 10
32.270381673177077
 20
-3.0521823459201385
 10
32.270381673177077
 20
-3.0521823459201385
 10
32.261768934461806
 20
-3.0521823459201385
 10
32.261768934461806
 20
-3.0521823459201385
 97
        0
 75
     0
 76
     1
 98
        1
 10
0.0
 20
0.0
  0
HATCH
  5
32
100
AcDbEntity
  8
LAYER_1
 62
     7
100
AcDbHatch
 10
0.0
 20
0.0
 30
0.0
210
0.0
220
0.0
230
1.0
  2
SOLID
 70
     1
 71
     0
 91
        1
 92
        1
 93
        1
 72
     4
 94
        3
 73
     0
 74
     0
 95
       56
 96
       52
 40
0.0
 40
0.0
 40
0.0
 40
0.0
 40
1.0
 40
1.0
 40
1.0
 40
2.0
 40
2.0
 40
2.0
 40
3.0
 40
3.0
 40
3.0
 40
4.0
 40
4.0
 40
4.0
 40
5.0
 40
5.0
 40
5.0
 40
6.0
 40
6.0
 40
6.0
 40
7.0
 40
7.0
 40
7.0
 40
8.0
 40
8.0
 40
8.0
 40
9.0
 40
9.0
 40
9.0
 40
10.0
 40
10.0
 40
10.0
 40
11.0
 40
11.0
 40
11.0
 40
12.0
 40
12.0
 40
12.0
 40
13.0
 40
13.0
 40
13.0
 40
14.0
 40
14.0
 40
14.0
 40
15.0
 40
15.0
 40
15.0
 40
16.0
 40
16.0
 40
16.0
 40
17.0
 40
17.0
 40
17.0
 40
17.0
 10
36.139568413628467
 20
2.1209730360243055
 10
36.139568413628467
 20
2.1209730360243055
 10
36.139568413628467
 20
1.1387763129340276
 10
36.139568413628467
 20
1.1387763129340276
 10
36.139568413628467
 20
1.1387763129340276
 10
37.206169976128471
 20
1.1387763129340276
 10
37.206169976128471
 20
1.1387763129340276
 10
37.206169976128471
 20
1.1387763129340276
 10
37.206169976128471
 20
0.5713690863715277
 10
37.206169976128471
 20
0.5713690863715277
 10
37.206169976128471
 20
0.5713690863715277
 10
36.139568413628467
 20
0.5713690863715277
 10
36.139568413628467
 20
0.5713690863715277
 10
36.139568413628467
 20
0.5713690863715277
 10
36.139568413628467
 20
-1.6383151584201388
 10
36.139568413628467
 20
-1.6383151584201388
 10
36.139568413628467
 20
-2.1464667426215276
 10
36.283228895399304
 20
-2.4341322157118053
 10
36.69836290147569
 20
-2.4341322157118053
 10
36.901279025607636
 20
-2.4341322157118053
 10
37.020134819878471
 20
-2.4172512478298609
 10
37.13003336588541
 20
-2.3834893120659721
 10
37.13003336588541
 20
-2.3834893120659721
 10
37.163795301649301
 20
-2.9505520290798608
 10
37.163795301649301
 20
-2.9505520290798608
 10
37.020134819878471
 20
-3.0015394422743054
 10
36.79138047960069
 20
-3.0521823459201385
 10
36.5033704969618
 20
-3.0521823459201385
 10
36.156449381510413
 20
-3.0521823459201385
 10
35.877052137586801
 20
-2.9336710611979164
 10
35.699285210503469
 20
-2.7390231662326388
 10
35.496024576822911
 20
-2.5102688259548609
 10
35.411275227864579
 20
-2.1464667426215276
 10
35.411275227864579
 20
-1.663808865017361
 10
35.411275227864579
 20
-1.663808865017361
 10
35.411275227864579
 20
0.5713690863715277
 10
35.411275227864579
 20
0.5713690863715277
 10
35.411275227864579
 20
0.5713690863715277
 10
34.776344129774301
 20
0.5713690863715277
 10
34.776344129774301
 20
0.5713690863715277
 10
34.776344129774301
 20
0.5713690863715277
 10
34.776344129774301
 20
1.1387763129340276
 10
34.776344129774301
 20
1.1387763129340276
 10
34.776344129774301
 20
1.1387763129340276
 10
35.411275227864579
 20
1.1387763129340276
 10
35.411275227864579
 20
1.1387763129340276
 10
35.411275227864579
 20
1.1387763129340276
 10
35.411275227864579
 20
1.8922186957465277
 10
35.411275227864579
 20
1.8922186957465277
 10
35.411275227864579
 20
1.8922186957465277
 10
36.139568413628467
 20
2.1209730360243055
 10
36.139568413628467
 20
2.1209730360243055
 97
        0
 75
     0
 76
     1
 98
        1
 10
0.0
 20
0.0
  0
HATCH
  5
31
100
AcDbEntity
  8
LAYER_1
 62
     7
100
AcDbHatch
 10
0.0
 20
0.0
 30
0.0
210
0.0
220
0.0
230
1.0
  2
SOLID
 70
     1
 71
     0
 91
        2
 92
       16
 93
        1
 72
     4
 94
        3
 73
     0
 74
     0
 95
       14
 96
       10
 40
0.0
 40
0.0
 40
0.0
 40
0.0
 40
1.0
 40
1.0
 40
1.0
 40
2.0
 40
2.0
 40
2.0
 40
3.0
 40
3.0
 40
3.0
 40
3.0
 10
40.593043348524304
 20
-0.50384521484375
 10
40.601311577690971
 20
-0.0380683051215278
 10
40.398050944010414
 20
0.7067613389756944
 10
39.568471950954859
 20
0.7067613389756944
 10
38.806416829427079
 20
0.7067613389756944
 10
38.484644911024304
 20
0.0125745985243056
 10
38.425389268663189
 20
-0.50384521484375
 10
38.425389268663189
 20
-0.50384521484375
 10
40.593043348524304
 20
-0.50384521484375
 10
40.593043348524304
 20
-0.50384521484375
 97
        0
 92
        1
 93
        1
 72
     4
 94
        3
 73
     0
 74
     0
 95
       32
 96
       28
 40
0.0
 40
0.0
 40
0.0
 40
0.0
 40
1.0
 40
1.0
 40
1.0
 40
2.0
 40
2.0
 40
2.0
 40
3.0
 40
3.0
 40
3.0
 40
4.0
 40
4.0
 40
4.0
 40
5.0
 40
5.0
 40
5.0
 40
6.0
 40
6.0
 40
6.0
 40
7.0
 40
7.0
 40
7.0
 40
8.0
 40
8.0
 40
8.0
 40
9.0
 40
9.0
 40
9.0
 40
9.0
 10
38.41677652994791
 20
-1.0371459960937499
 10
38.434002007378467
 20
-2.0448364257812499
 10
39.068933105468744
 20
-2.4596259223090278
 10
39.814107259114579
 20
-2.4596259223090278
 10
40.347408040364577
 20
-2.4596259223090278
 10
40.677448187934026
 20
-2.3666083441840278
 10
40.94857720269097
 20
-2.256365288628472
 10
40.94857720269097
 20
-2.256365288628472
 10
41.083969455295133
 20
-2.7813978407118052
 10
41.083969455295133
 20
-2.7813978407118052
 10
40.821453179253467
 20
-2.8999091254340277
 10
40.364289008246523
 20
-3.0439141167534718
 10
39.7124769422743
 20
-3.0439141167534718
 10
38.45915120442708
 20
-3.0439141167534718
 10
37.697440592447911
 20
-2.2057223849826388
 10
37.697440592447911
 20
-0.9778903537326388
 10
37.697440592447911
 20
0.2668226453993056
 10
38.434002007378467
 20
1.2404066297743055
 10
39.627727593315967
 20
1.2404066297743055
 10
40.965458170572916
 20
1.2404066297743055
 10
41.312723795572914
 20
0.06356201171875
 10
41.312723795572914
 20
-0.6902248806423611
 10
41.312723795572914
 20
-0.8424981011284721
 10
41.304111056857636
 20
-0.9610093858506944
 10
41.28723008897569
 20
-1.0457587348090276
 10
41.28723008897569
 20
-1.0457587348090276
 10
38.41677652994791
 20
-1.0371459960937499
 10
38.41677652994791
 20
-1.0371459960937499
 97
        0
 75
     0
 76
     1
 98
        1
 10
0.0
 20
0.0
  0
ENDBLK
  5
45
100
AcDbEntity
  8
LAYER_1
100
AcDbBlockEnd
  0
BLOCK
  5
4F
100
AcDbEntity
  8
LAYER_1
 62
     7
100
AcDbBlockBegin
  2
AI9-BLK2
 70
     0
 10
0.0
 20
0.0
 30
0.0
  3
AI9-BLK2
  1

  0
HATCH
  5
55
100
AcDbEntity
  8
LAYER_1
 62
     7
100
AcDbHatch
 10
0.0
 20
0.0
 30
0.0
210
0.0
220
0.0
230
1.0
  2
SOLID
 70
     1
 71
     0
 91
        2
 92
       16
 93
        1
 72
     4
 94
        3
 73
     0
 74
     0
 95
       20
 96
       16
 40
0.0
 40
0.0
 40
0.0
 40
0.0
 40
1.0
 40
1.0
 40
1.0
 40
2.0
 40
2.0
 40
2.0
 40
3.0
 40
3.0
 40
3.0
 40
4.0
 40
4.0
 40
4.0
 40
5.0
 40
5.0
 40
5.0
 40
5.0
 10
-2.9195461697048608
 20
-0.8001234266493055
 10
-2.6683987087673611
 20
-0.8001234266493055
 10
-2.5471313476562498
 20
-0.50384521484375
 10
-2.5471313476562498
 20
-0.0353122287326389
 10
-2.5471313476562498
 20
0.4163397894965277
 10
-2.6597859700520829
 20
0.7126180013020833
 10
-2.9195461697048608
 20
0.7126180013020833
 10
-3.1451999240451385
 20
0.7126180013020833
 10
-3.2919609917534718
 20
0.4246080186631944
 10
-3.2919609917534718
 20
-0.0353122287326389
 10
-3.2978176540798607
 20
-0.5121134440104166
 10
-3.1510565863715274
 20
-0.8001234266493055
 10
-2.9223022460937496
 20
-0.8001234266493055
 10
-2.9223022460937496
 20
-0.8001234266493055
 10
-2.9195461697048608
 20
-0.8001234266493055
 10
-2.9195461697048608
 20
-0.8001234266493055
 97
        0
 92
        1
 93
        1
 72
     4
 94
        3
 73
     0
 74
     0
 95
       20
 96
       16
 40
0.0
 40
0.0
 40
0.0
 40
0.0
 40
1.0
 40
1.0
 40
1.0
 40
2.0
 40
2.0
 40
2.0
 40
3.0
 40
3.0
 40
3.0
 40
4.0
 40
4.0
 40
4.0
 40
5.0
 40
5.0
 40
5.0
 40
5.0
 10
-2.9309149848090277
 20
-0.9920152452256944
 10
-3.289204915364583
 20
-0.9920152452256944
 10
-3.5348402235243053
 20
-0.656118435329861
 10
-3.5403523763020832
 20
-0.0494371202256944
 10
-3.5403523763020832
 20
0.5686130099826389
 10
-3.2723239474826387
 20
0.9045098198784721
 10
-2.8999091254340277
 20
0.9045098198784721
 10
-2.5157809787326388
 20
0.9045098198784721
 10
-2.2928833007812499
 20
0.5600002712673611
 10
-2.2928833007812499
 20
-0.0239434136284722
 10
-2.2928833007812499
 20
-0.6478502061631943
 10
-2.5271497938368053
 20
-0.9920152452256944
 10
-2.9278143988715275
 20
-0.9920152452256944
 10
-2.9278143988715275
 20
-0.9920152452256944
 10
-2.9309149848090277
 20
-0.9920152452256944
 10
-2.9309149848090277
 20
-0.9920152452256944
 97
        0
 75
     0
 76
     1
 98
        1
 10
0.0
 20
0.0
  0
HATCH
  5
54
100
AcDbEntity
  8
LAYER_1
 62
     7
100
AcDbHatch
 10
0.0
 20
0.0
 30
0.0
210
0.0
220
0.0
230
1.0
  2
SOLID
 70
     1
 71
     0
 91
        1
 92
        1
 93
        1
 72
     4
 94
        3
 73
     0
 74
     0
 95
       20
 96
       16
 40
0.0
 40
0.0
 40
0.0
 40
0.0
 40
1.0
 40
1.0
 40
1.0
 40
2.0
 40
2.0
 40
2.0
 40
3.0
 40
3.0
 40
3.0
 40
4.0
 40
4.0
 40
4.0
 40
5.0
 40
5.0
 40
5.0
 40
5.0
 10
-1.883950466579861
 20
-0.9920152452256944
 10
-1.9797241210937497
 20
-0.9920152452256944
 10
-2.0475925021701387
 20
-0.9158786349826388
 10
-2.0475925021701387
 20
-0.814248318142361
 10
-2.0475925021701387
 20
-0.7126180013020833
 10
-1.976968044704861
 20
-0.6364813910590277
 10
-1.8780938042534721
 20
-0.6364813910590277
 10
-1.7792195638020831
 20
-0.6364813910590277
 10
-1.7116956922743054
 20
-0.7098619249131943
 10
-1.7116956922743054
 20
-0.814248318142361
 10
-1.7116956922743054
 20
-0.9158786349826388
 10
-1.7792195638020831
 20
-0.9920152452256944
 10
-1.880849880642361
 20
-0.9920152452256944
 10
-1.880849880642361
 20
-0.9920152452256944
 10
-1.883950466579861
 20
-0.9920152452256944
 10
-1.883950466579861
 20
-0.9920152452256944
 97
        0
 75
     0
 76
     1
 98
        1
 10
0.0
 20
0.0
  0
HATCH
  5
53
100
AcDbEntity
  8
LAYER_1
 62
     7
100
AcDbHatch
 10
0.0
 20
0.0
 30
0.0
210
0.0
220
0.0
230
1.0
  2
SOLID
 70
     1
 71
     0
 91
        1
 92
        1
 93
        1
 72
     4
 94
        3
 73
     0
 74
     0
 95
       47
 96
       43
 40
0.0
 40
0.0
 40
0.0
 40
0.0
 40
1.0
 40
1.0
 40
1.0
 40
2.0
 40
2.0
 40
2.0
 40
3.0
 40
3.0
 40
3.0
 40
4.0
 40
4.0
 40
4.0
 40
5.0
 40
5.0
 40
5.0
 40
6.0
 40
6.0
 40
6.0
 40
7.0
 40
7.0
 40
7.0
 40
8.0
 40
8.0
 40
8.0
 40
9.0
 40
9.0
 40
9.0
 40
10.0
 40
10.0
 40
10.0
 40
11.0
 40
11.0
 40
11.0
 40
12.0
 40
12.0
 40
12.0
 40
13.0
 40
13.0
 40
13.0
 40
14.0
 40
14.0
 40
14.0
 40
14.0
 10
-1.4829413519965275
 20
-0.9610093858506944
 10
-1.4829413519965275
 20
-0.9610093858506944
 10
-1.4829413519965275
 20
-0.8087361653645833
 10
-1.4829413519965275
 20
-0.8087361653645833
 10
-1.4829413519965275
 20
-0.8087361653645833
 10
-1.2882934570312499
 20
-0.6196004231770833
 10
-1.2882934570312499
 20
-0.6196004231770833
 10
-0.8197604709201388
 20
-0.1734605577256944
 10
-0.6054755316840277
 20
0.06356201171875
 10
-0.6054755316840277
 20
0.3398586697048611
 10
-0.6054755316840277
 20
0.5262383355034722
 10
-0.69298095703125
 20
0.6984931098090277
 10
-0.9665215386284721
 20
0.6984931098090277
 10
-1.1332641601562499
 20
0.6984931098090277
 10
-1.2714124891493055
 20
0.6137437608506944
 10
-1.3561618381076388
 20
0.5431193033854166
 10
-1.3561618381076388
 20
0.5431193033854166
 10
-1.4350545247395832
 20
0.718130154079861
 10
-1.4350545247395832
 20
0.718130154079861
 10
-1.3110310872395832
 20
0.8225165473090277
 10
-1.1274074978298609
 20
0.9045098198784721
 10
-0.9158786349826388
 20
0.9045098198784721
 10
-0.5234822591145832
 20
0.9045098198784721
 10
-0.3570841471354166
 20
0.6333808051215277
 10
-0.3570841471354166
 20
0.3712090386284722
 10
-0.3570841471354166
 20
0.03255615234375
 10
-0.6023749457465277
 20
-0.2413289388020833
 10
-0.9892591688368054
 20
-0.6137437608506944
 10
-0.9892591688368054
 20
-0.6137437608506944
 10
-1.1332641601562499
 20
-0.7494805230034721
 10
-1.1332641601562499
 20
-0.7494805230034721
 10
-1.1332641601562499
 20
-0.7494805230034721
 10
-1.1332641601562499
 20
-0.75499267578125
 10
-1.1332641601562499
 20
-0.75499267578125
 10
-1.1332641601562499
 20
-0.75499267578125
 10
-0.3119533962673611
 20
-0.75499267578125
 10
-0.3119533962673611
 20
-0.75499267578125
 10
-0.3119533962673611
 20
-0.75499267578125
 10
-0.3119533962673611
 20
-0.9610093858506944
 10
-0.3119533962673611
 20
-0.9610093858506944
 10
-0.3119533962673611
 20
-0.9610093858506944
 10
-1.4829413519965275
 20
-0.9610093858506944
 10
-1.4829413519965275
 20
-0.9610093858506944
 97
        0
 75
     0
 76
     1
 98
        1
 10
0.0
 20
0.0
  0
HATCH
  5
52
100
AcDbEntity
  8
LAYER_1
 62
     7
100
AcDbHatch
 10
0.0
 20
0.0
 30
0.0
210
0.0
220
0.0
230
1.0
  2
SOLID
 70
     1
 71
     0
 91
        2
 92
       16
 93
        1
 72
     4
 94
        3
 73
     0
 74
     0
 95
       23
 96
       19
 40
0.0
 40
0.0
 40
0.0
 40
0.0
 40
1.0
 40
1.0
 40
1.0
 40
2.0
 40
2.0
 40
2.0
 40
3.0
 40
3.0
 40
3.0
 40
4.0
 40
4.0
 40
4.0
 40
5.0
 40
5.0
 40
5.0
 40
6.0
 40
6.0
 40
6.0
 40
6.0
 10
0.5854939778645832
 20
-0.8001234266493055
 10
0.7973673502604166
 20
-0.8001234266493055
 10
0.94102783203125
 20
-0.6223564995659722
 10
0.94102783203125
 20
-0.3598402235243055
 10
0.94102783203125
 20
-0.0973239474826389
 10
0.7915106879340277
 20
0.06046142578125
 10
0.563100857204861
 20
0.06046142578125
 10
0.4135837131076389
 20
0.06046142578125
 10
0.2723347981770833
 20
-0.0298000759548611
 10
0.2044664171006944
 20
-0.1651923285590278
 10
0.1903415256076389
 20
-0.1934421115451389
 10
0.1793172200520833
 20
-0.2272040473090278
 10
0.1793172200520833
 20
-0.2723347981770833
 10
0.1820732964409722
 20
-0.5744696723090277
 10
0.3229777018229166
 20
-0.8001234266493055
 10
0.5827379014756944
 20
-0.8001234266493055
 10
0.5827379014756944
 20
-0.8001234266493055
 10
0.5854939778645832
 20
-0.8001234266493055
 10
0.5854939778645832
 20
-0.8001234266493055
 97
        0
 92
        1
 93
        1
 72
     4
 94
        3
 73
     0
 74
     0
 95
       38
 96
       34
 40
0.0
 40
0.0
 40
0.0
 40
0.0
 40
1.0
 40
1.0
 40
1.0
 40
2.0
 40
2.0
 40
2.0
 40
3.0
 40
3.0
 40
3.0
 40
4.0
 40
4.0
 40
4.0
 40
5.0
 40
5.0
 40
5.0
 40
6.0
 40
6.0
 40
6.0
 40
7.0
 40
7.0
 40
7.0
 40
8.0
 40
8.0
 40
8.0
 40
9.0
 40
9.0
 40
9.0
 40
10.0
 40
10.0
 40
10.0
 40
11.0
 40
11.0
 40
11.0
 40
11.0
 10
1.0116522894965276
 20
0.7012491861979167
 10
0.9610093858506944
 20
0.7040052625868055
 10
0.8958970811631943
 20
0.6984931098090277
 10
0.8256171332465278
 20
0.687124294704861
 10
0.4332207573784722
 20
0.625112575954861
 10
0.2299601236979167
 20
0.3398586697048611
 10
0.18758544921875
 20
0.0353122287326389
 10
0.18758544921875
 20
0.0353122287326389
 10
0.1934421115451389
 20
0.0353122287326389
 10
0.1934421115451389
 20
0.0353122287326389
 10
0.2809475368923611
 20
0.1538235134548611
 10
0.4359768337673611
 20
0.24959716796875
 10
0.6392374674479167
 20
0.24959716796875
 10
0.9637654622395833
 20
0.24959716796875
 10
1.1921752929687499
 20
0.0125745985243056
 10
1.1921752929687499
 20
-0.3429592556423611
 10
1.1921752929687499
 20
-0.6816121419270833
 10
0.9637654622395833
 20
-0.9920152452256944
 10
0.5799818250868055
 20
-0.9920152452256944
 10
0.1903415256076389
 20
-0.9920152452256944
 10
-0.0663180881076389
 20
-0.687124294704861
 10
-0.0663180881076389
 20
-0.2103230794270833
 10
-0.0663180881076389
 20
0.1510674370659722
 10
0.0608059353298611
 20
0.4359768337673611
 10
0.2440850151909722
 20
0.6192559136284722
 10
0.3963582356770833
 20
0.7691175672743055
 10
0.5996188693576389
 20
0.8621351453993055
 10
0.8311292860243055
 20
0.8903849283854166
 10
0.9045098198784721
 20
0.9017537434895833
 10
0.9665215386284721
 20
0.9045098198784721
 10
1.0116522894965276
 20
0.9045098198784721
 10
1.0116522894965276
 20
0.9045098198784721
 10
1.0116522894965276
 20
0.7012491861979167
 10
1.0116522894965276
 20
0.7012491861979167
 97
        0
 75
     0
 76
     1
 98
        1
 10
0.0
 20
0.0
  0
HATCH
  5
51
100
AcDbEntity
  8
LAYER_1
 62
     7
100
AcDbHatch
 10
0.0
 20
0.0
 30
0.0
210
0.0
220
0.0
230
1.0
  2
SOLID
 70
     1
 71
     0
 91
        1
 92
        1
 93
        1
 72
     4
 94
        3
 73
     0
 74
     0
 95
       50
 96
       46
 40
0.0
 40
0.0
 40
0.0
 40
0.0
 40
1.0
 40
1.0
 40
1.0
 40
2.0
 40
2.0
 40
2.0
 40
3.0
 40
3.0
 40
3.0
 40
4.0
 40
4.0
 40
4.0
 40
5.0
 40
5.0
 40
5.0
 40
6.0
 40
6.0
 40
6.0
 40
7.0
 40
7.0
 40
7.0
 40
8.0
 40
8.0
 40
8.0
 40
9.0
 40
9.0
 40
9.0
 40
10.0
 40
10.0
 40
10.0
 40
11.0
 40
11.0
 40
11.0
 40
12.0
 40
12.0
 40
12.0
 40
13.0
 40
13.0
 40
13.0
 40
14.0
 40
14.0
 40
14.0
 40
15.0
 40
15.0
 40
15.0
 40
15.0
 10
2.5075127495659721
 20
0.6647311740451388
 10
2.5075127495659721
 20
0.6647311740451388
 10
1.8074693467881944
 20
0.6647311740451388
 10
1.8074693467881944
 20
0.6647311740451388
 10
1.8074693467881944
 20
0.6647311740451388
 10
1.7368448893229165
 20
0.1989542643229167
 10
1.7368448893229165
 20
0.1989542643229167
 10
1.7792195638020831
 20
0.2044664171006944
 10
1.818838161892361
 20
0.2103230794270833
 10
1.8867065429687497
 20
0.2103230794270833
 10
2.0303670247395833
 20
0.2103230794270833
 10
2.1688598632812499
 20
0.1793172200520833
 10
2.281514485677083
 20
0.1114488389756944
 10
2.4255194769965276
 20
0.03255615234375
 10
2.5440307617187496
 20
-0.1283298068576389
 10
2.5440307617187496
 20
-0.3656968858506944
 10
2.5440307617187496
 20
-0.72398681640625
 10
2.2591213650173607
 20
-0.9920152452256944
 10
1.8612128363715277
 20
-0.9920152452256944
 10
1.6607082790798608
 20
-0.9920152452256944
 10
1.4943101671006942
 20
-0.9355156792534721
 10
1.4040486653645832
 20
-0.87901611328125
 10
1.4040486653645832
 20
-0.87901611328125
 10
1.4660603841145832
 20
-0.6902248806423611
 10
1.4660603841145832
 20
-0.6902248806423611
 10
1.5421969943576388
 20
-0.7353556315104166
 10
1.6917141384548608
 20
-0.7915106879340277
 10
1.8612128363715277
 20
-0.7915106879340277
 10
2.0927232530381943
 20
-0.7915106879340277
 10
2.2956393771701387
 20
-0.6392374674479167
 10
2.2928833007812499
 20
-0.3908460828993055
 10
2.2928833007812499
 20
-0.1483113606770833
 10
2.131997341579861
 20
0.0184312608506944
 10
1.7681952582465277
 20
0.0184312608506944
 10
1.6607082790798608
 20
0.0184312608506944
 10
1.5790595160590277
 20
0.0098185221354167
 10
1.5111911349826388
 20
-0.00155029296875
 10
1.5111911349826388
 20
-0.00155029296875
 10
1.6297024197048611
 20
0.8735039605034721
 10
1.6297024197048611
 20
0.8735039605034721
 10
1.6297024197048611
 20
0.8735039605034721
 10
2.5075127495659721
 20
0.8735039605034721
 10
2.5075127495659721
 20
0.8735039605034721
 10
2.5075127495659721
 20
0.8735039605034721
 10
2.5075127495659721
 20
0.6647311740451388
 10
2.5075127495659721
 20
0.6647311740451388
 97
        0
 75
     0
 76
     1
 98
        1
 10
0.0
 20
0.0
  0
HATCH
  5
50
100
AcDbEntity
  8
LAYER_1
 62
     7
100
AcDbHatch
 10
0.0
 20
0.0
 30
0.0
210
0.0
220
0.0
230
1.0
  2
SOLID
 70
     1
 71
     0
 91
        2
 92
        1
 93
        1
 72
     4
 94
        3
 73
     0
 74
     0
 95
       17
 96
       13
 40
0.0
 40
0.0
 40
0.0
 40
0.0
 40
1.0
 40
1.0
 40
1.0
 40
2.0
 40
2.0
 40
2.0
 40
3.0
 40
3.0
 40
3.0
 40
4.0
 40
4.0
 40
4.0
 40
4.0
 10
3.5403523763020832
 20
0.9920152452256944
 10
3.5403523763020832
 20
0.9920152452256944
 10
3.4952216254340276
 20
0.31470947265625
 10
3.4952216254340276
 20
0.31470947265625
 10
3.4952216254340276
 20
0.31470947265625
 10
3.3429484049479163
 20
0.31470947265625
 10
3.3429484049479163
 20
0.31470947265625
 10
3.3429484049479163
 20
0.31470947265625
 10
3.2974731445312497
 20
0.9920152452256944
 10
3.2974731445312497
 20
0.9920152452256944
 10
3.2974731445312497
 20
0.9920152452256944
 10
3.5403523763020832
 20
0.9920152452256944
 10
3.5403523763020832
 20
0.9920152452256944
 97
        0
 92
        1
 93
        1
 72
     4
 94
        3
 73
     0
 74
     0
 95
       17
 96
       13
 40
0.0
 40
0.0
 40
0.0
 40
0.0
 40
1.0
 40
1.0
 40
1.0
 40
2.0
 40
2.0
 40
2.0
 40
3.0
 40
3.0
 40
3.0
 40
4.0
 40
4.0
 40
4.0
 40
4.0
 10
3.1197062174479164
 20
0.9920152452256944
 10
3.1197062174479164
 20
0.9920152452256944
 10
3.0745754665798608
 20
0.31470947265625
 10
3.0745754665798608
 20
0.31470947265625
 10
3.0745754665798608
 20
0.31470947265625
 10
2.9223022460937496
 20
0.31470947265625
 10
2.9223022460937496
 20
0.31470947265625
 10
2.9223022460937496
 20
0.31470947265625
 10
2.8771714952256944
 20
0.9920152452256944
 10
2.8771714952256944
 20
0.9920152452256944
 10
2.8771714952256944
 20
0.9920152452256944
 10
3.1197062174479164
 20
0.9920152452256944
 10
3.1197062174479164
 20
0.9920152452256944
 97
        0
 75
     0
 76
     1
 98
        1
 10
0.0
 20
0.0
  0
ENDBLK
  5
56
100
AcDbEntity
  8
LAYER_1
100
AcDbBlockEnd
  0
BLOCK
  5
6A
100
AcDbEntity
  8
LAYER_1
 62
     7
100
AcDbBlockBegin
  2
AI9-BLK3
 70
     0
 10
0.0
 20
0.0
 30
0.0
  3
AI9-BLK3
  1

  0
HATCH
  5
70
100
AcDbEntity
  8
LAYER_1
 62
     7
100
AcDbHatch
 10
0.0
 20
0.0
 30
0.0
210
0.0
220
0.0
230
1.0
  2
SOLID
 70
     1
 71
     0
 91
        1
 92
        1
 93
        1
 72
     4
 94
        3
 73
     0
 74
     0
 95
       59
 96
       55
 40
0.0
 40
0.0
 40
0.0
 40
0.0
 40
1.0
 40
1.0
 40
1.0
 40
2.0
 40
2.0
 40
2.0
 40
3.0
 40
3.0
 40
3.0
 40
4.0
 40
4.0
 40
4.0
 40
5.0
 40
5.0
 40
5.0
 40
6.0
 40
6.0
 40
6.0
 40
7.0
 40
7.0
 40
7.0
 40
8.0
 40
8.0
 40
8.0
 40
9.0
 40
9.0
 40
9.0
 40
10.0
 40
10.0
 40
10.0
 40
11.0
 40
11.0
 40
11.0
 40
12.0
 40
12.0
 40
12.0
 40
13.0
 40
13.0
 40
13.0
 40
14.0
 40
14.0
 40
14.0
 40
15.0
 40
15.0
 40
15.0
 40
16.0
 40
16.0
 40
16.0
 40
17.0
 40
17.0
 40
17.0
 40
18.0
 40
18.0
 40
18.0
 40
18.0
 10
-9.5263780381944443
 20
-1.8664666069878471
 10
-9.3324191623263886
 20
-1.9829108344184025
 10
-8.8900689019097214
 20
-2.1770419650607638
 10
-8.4087890624999986
 20
-2.1770419650607638
 10
-7.5395914713541661
 20
-2.1770419650607638
 10
-7.2601942274305546
 20
-1.6259989420572916
 10
-7.2681179470486104
 20
-1.1991516113281249
 10
-7.2756971571180546
 20
-0.4929070366753472
 10
-7.9120062934027775
 20
-0.1900831434461806
 10
-8.5717420789930543
 20
-0.1900831434461806
 10
-8.5717420789930543
 20
-0.1900831434461806
 10
-8.9520806206597214
 20
-0.1900831434461806
 10
-8.9520806206597214
 20
-0.1900831434461806
 10
-8.9520806206597214
 20
-0.1900831434461806
 10
-8.9520806206597214
 20
0.3220303005642361
 10
-8.9520806206597214
 20
0.3220303005642361
 10
-8.9520806206597214
 20
0.3220303005642361
 10
-8.5717420789930543
 20
0.3220303005642361
 10
-8.5717420789930543
 20
0.3220303005642361
 10
-8.0749593098958332
 20
0.3220303005642361
 10
-7.4465738932291661
 20
0.5781731499565972
 10
-7.4465738932291661
 20
1.1757249620225694
 10
-7.4465738932291661
 20
1.5793178982204861
 10
-7.7025444878472218
 20
1.9364020453559025
 10
-8.3312744140624986
 20
1.9364020453559025
 10
-8.73469509548611
 20
1.9364020453559025
 10
-9.1229573567708329
 20
1.7579460991753471
 10
-9.3399983723958329
 20
1.6025722927517361
 10
-9.3399983723958329
 20
1.6025722927517361
 10
-9.5263780381944443
 20
2.099355061848958
 10
-9.5263780381944443
 20
2.099355061848958
 10
-9.2549045138888886
 20
2.2933139377170138
 10
-8.7426188151041657
 20
2.4874450683593747
 10
-8.1993272569444429
 20
2.4874450683593747
 10
-7.2057617187499989
 20
2.4874450683593747
 10
-6.7558322482638884
 20
1.8976447211371525
 10
-6.7558322482638884
 20
1.2844177246093749
 10
-6.7558322482638884
 20
0.7566290961371527
 10
-7.0738145616319441
 20
0.3142788357204861
 10
-7.6870415581597218
 20
0.0893141004774305
 10
-7.6870415581597218
 20
0.0893141004774305
 10
-7.6870415581597218
 20
0.0738111707899305
 10
-7.6870415581597218
 20
0.0738111707899305
 10
-7.0662353515624989
 20
-0.042633056640625
 10
-6.5618733723958327
 20
-0.5084099663628472
 10
-6.5618733723958327
 20
-1.2146545410156249
 10
-6.5618733723958327
 20
-2.021840413411458
 10
-7.1981825086805546
 20
-2.7280849880642357
 10
-8.4012098524305543
 20
-2.7280849880642357
 10
-8.9675835503472214
 20
-2.7280849880642357
 10
-9.4643663194444443
 20
-2.5494567871093747
 10
-9.7127577039930539
 20
-2.386503770616319
 10
-9.7127577039930539
 20
-2.386503770616319
 10
-9.5263780381944443
 20
-1.8664666069878471
 10
-9.5263780381944443
 20
-1.8664666069878471
 97
        0
 75
     0
 76
     1
 98
        1
 10
0.0
 20
0.0
  0
HATCH
  5
6F
100
AcDbEntity
  8
LAYER_1
 62
     7
100
AcDbHatch
 10
0.0
 20
0.0
 30
0.0
210
0.0
220
0.0
230
1.0
  2
SOLID
 70
     1
 71
     0
 91
        1
 92
        1
 93
        1
 72
     4
 94
        3
 73
     0
 74
     0
 95
       20
 96
       16
 40
0.0
 40
0.0
 40
0.0
 40
0.0
 40
1.0
 40
1.0
 40
1.0
 40
2.0
 40
2.0
 40
2.0
 40
3.0
 40
3.0
 40
3.0
 40
4.0
 40
4.0
 40
4.0
 40
5.0
 40
5.0
 40
5.0
 40
5.0
 10
-5.2034722222222216
 20
-2.7280849880642357
 10
-5.467366536458333
 20
-2.7280849880642357
 10
-5.6537462022569436
 20
-2.5184509277343747
 10
-5.6537462022569436
 20
-2.2390536838107638
 10
-5.6537462022569436
 20
-1.9596564398871525
 10
-5.4597873263888888
 20
-1.7501946343315971
 10
-5.1879692925347216
 20
-1.7501946343315971
 10
-4.9164957682291659
 20
-1.7501946343315971
 10
-4.7301161024305554
 20
-1.9519049750434025
 10
-4.7301161024305554
 20
-2.2390536838107638
 10
-4.7301161024305554
 20
-2.5184509277343747
 10
-4.9164957682291659
 20
-2.7280849880642357
 10
-5.1958930121527773
 20
-2.7280849880642357
 10
-5.1958930121527773
 20
-2.7280849880642357
 10
-5.2034722222222216
 20
-2.7280849880642357
 10
-5.2034722222222216
 20
-2.7280849880642357
 97
        0
 75
     0
 76
     1
 98
        1
 10
0.0
 20
0.0
  0
HATCH
  5
6E
100
AcDbEntity
  8
LAYER_1
 62
     7
100
AcDbHatch
 10
0.0
 20
0.0
 30
0.0
210
0.0
220
0.0
230
1.0
  2
SOLID
 70
     1
 71
     0
 91
        1
 92
        1
 93
        1
 72
     4
 94
        3
 73
     0
 74
     0
 95
       59
 96
       55
 40
0.0
 40
0.0
 40
0.0
 40
0.0
 40
1.0
 40
1.0
 40
1.0
 40
2.0
 40
2.0
 40
2.0
 40
3.0
 40
3.0
 40
3.0
 40
4.0
 40
4.0
 40
4.0
 40
5.0
 40
5.0
 40
5.0
 40
6.0
 40
6.0
 40
6.0
 40
7.0
 40
7.0
 40
7.0
 40
8.0
 40
8.0
 40
8.0
 40
9.0
 40
9.0
 40
9.0
 40
10.0
 40
10.0
 40
10.0
 40
11.0
 40
11.0
 40
11.0
 40
12.0
 40
12.0
 40
12.0
 40
13.0
 40
13.0
 40
13.0
 40
14.0
 40
14.0
 40
14.0
 40
15.0
 40
15.0
 40
15.0
 40
16.0
 40
16.0
 40
16.0
 40
17.0
 40
17.0
 40
17.0
 40
18.0
 40
18.0
 40
18.0
 40
18.0
 10
-3.9387776692708329
 20
-1.8664666069878471
 10
-3.7444742838541663
 20
-1.9829108344184025
 10
-3.3021240234374996
 20
-2.1770419650607638
 10
-2.8211886935763886
 20
-2.1770419650607638
 10
-1.9519911024305554
 20
-2.1770419650607638
 10
-1.6725938585069442
 20
-1.6259989420572916
 10
-1.6801730685763887
 20
-1.1991516113281249
 10
-1.6880967881944442
 20
-0.4929070366753472
 10
-2.3244059244791666
 20
-0.1900831434461806
 10
-2.9841417100694443
 20
-0.1900831434461806
 10
-2.9841417100694443
 20
-0.1900831434461806
 10
-3.364480251736111
 20
-0.1900831434461806
 10
-3.364480251736111
 20
-0.1900831434461806
 10
-3.364480251736111
 20
-0.1900831434461806
 10
-3.364480251736111
 20
0.3220303005642361
 10
-3.364480251736111
 20
0.3220303005642361
 10
-3.364480251736111
 20
0.3220303005642361
 10
-2.9841417100694443
 20
0.3220303005642361
 10
-2.9841417100694443
 20
0.3220303005642361
 10
-2.4873589409722219
 20
0.3220303005642361
 10
-1.8586290147569442
 20
0.5781731499565972
 10
-1.8586290147569442
 20
1.1757249620225694
 10
-1.8586290147569442
 20
1.5793178982204861
 10
-2.1149441189236109
 20
1.9364020453559025
 10
-2.7433295355902776
 20
1.9364020453559025
 10
-3.1470947265624996
 20
1.9364020453559025
 10
-3.535012478298611
 20
1.7579460991753471
 10
-3.752398003472222
 20
1.6025722927517361
 10
-3.752398003472222
 20
1.6025722927517361
 10
-3.9387776692708329
 20
2.099355061848958
 10
-3.9387776692708329
 20
2.099355061848958
 10
-3.6669596354166663
 20
2.2933139377170138
 10
-3.1546739366319443
 20
2.4874450683593747
 10
-2.6113823784722219
 20
2.4874450683593747
 10
-1.6181613498263887
 20
2.4874450683593747
 10
-1.1678873697916665
 20
1.8976447211371525
 10
-1.1678873697916665
 20
1.2844177246093749
 10
-1.1678873697916665
 20
0.7566290961371527
 10
-1.4862141927083332
 20
0.3142788357204861
 10
-2.0994411892361109
 20
0.0893141004774305
 10
-2.0994411892361109
 20
0.0893141004774305
 10
-2.0994411892361109
 20
0.0738111707899305
 10
-2.0994411892361109
 20
0.0738111707899305
 10
-1.4782904730902777
 20
-0.042633056640625
 10
-0.973928493923611
 20
-0.5084099663628472
 10
-0.973928493923611
 20
-1.2146545410156249
 10
-0.973928493923611
 20
-2.021840413411458
 10
-1.6102376302083332
 20
-2.7280849880642357
 10
-2.8132649739583329
 20
-2.7280849880642357
 10
-3.379983181423611
 20
-2.7280849880642357
 10
-3.876421440972222
 20
-2.5494567871093747
 10
-4.1248128255208334
 20
-2.386503770616319
 10
-4.1248128255208334
 20
-2.386503770616319
 10
-3.9387776692708329
 20
-1.8664666069878471
 10
-3.9387776692708329
 20
-1.8664666069878471
 97
        0
 75
     0
 76
     1
 98
        1
 10
0.0
 20
0.0
  0
HATCH
  5
6D
100
AcDbEntity
  8
LAYER_1
 62
     7
100
AcDbHatch
 10
0.0
 20
0.0
 30
0.0
210
0.0
220
0.0
230
1.0
  2
SOLID
 70
     1
 71
     0
 91
        3
 92
       16
 93
        1
 72
     4
 94
        3
 73
     0
 74
     0
 95
       20
 96
       16
 40
0.0
 40
0.0
 40
0.0
 40
0.0
 40
1.0
 40
1.0
 40
1.0
 40
2.0
 40
2.0
 40
2.0
 40
3.0
 40
3.0
 40
3.0
 40
4.0
 40
4.0
 40
4.0
 40
5.0
 40
5.0
 40
5.0
 40
5.0
 10
1.5482259114583332
 20
1.9984137641059025
 10
0.9818522135416666
 20
1.9984137641059025
 10
0.6714491102430555
 20
1.6259989420572916
 10
0.6714491102430555
 20
1.1914001464843749
 10
0.6635253906249999
 20
0.6868659125434027
 10
1.051443142361111
 20
0.4152201334635416
 10
1.6336642795138887
 20
0.2600185818142361
 10
2.0684353298611109
 20
0.4074686686197916
 10
2.4019205729166666
 20
0.7178717719184027
 10
2.4019205729166666
 20
1.1757249620225694
 10
2.4019205729166666
 20
1.5793178982204861
 10
2.1614529079861109
 20
1.9984137641059025
 10
1.5561496310763887
 20
1.9984137641059025
 10
1.5561496310763887
 20
1.9984137641059025
 10
1.5482259114583332
 20
1.9984137641059025
 10
1.5482259114583332
 20
1.9984137641059025
 97
        0
 92
       16
 93
        1
 72
     4
 94
        3
 73
     0
 74
     0
 95
       20
 96
       16
 40
0.0
 40
0.0
 40
0.0
 40
0.0
 40
1.0
 40
1.0
 40
1.0
 40
2.0
 40
2.0
 40
2.0
 40
3.0
 40
3.0
 40
3.0
 40
4.0
 40
4.0
 40
4.0
 40
5.0
 40
5.0
 40
5.0
 40
5.0
 10
1.5327229817708332
 20
-2.2313022189670138
 10
2.1459499782986109
 20
-2.2313022189670138
 10
2.5417914496527776
 20
-1.8509636773003471
 10
2.5417914496527776
 20
-1.3310987684461804
 10
2.5417914496527776
 20
-0.7256232367621527
 10
2.1149441189236109
 20
-0.4229715983072916
 10
1.4317816840277777
 20
-0.2290127224392361
 10
0.8419813368055554
 20
-0.3997172037760416
 10
0.5239990234374999
 20
-0.7955586751302083
 10
0.5239990234374999
 20
-1.2766662597656249
 10
0.5005723741319444
 20
-1.7812004937065971
 10
0.8884901258680554
 20
-2.2313022189670138
 10
1.5251437717013887
 20
-2.2313022189670138
 10
1.5251437717013887
 20
-2.2313022189670138
 10
1.5327229817708332
 20
-2.2313022189670138
 10
1.5327229817708332
 20
-2.2313022189670138
 97
        0
 92
        1
 93
        1
 72
     4
 94
        3
 73
     0
 74
     0
 95
       38
 96
       34
 40
0.0
 40
0.0
 40
0.0
 40
0.0
 40
1.0
 40
1.0
 40
1.0
 40
2.0
 40
2.0
 40
2.0
 40
3.0
 40
3.0
 40
3.0
 40
4.0
 40
4.0
 40
4.0
 40
5.0
 40
5.0
 40
5.0
 40
6.0
 40
6.0
 40
6.0
 40
7.0
 40
7.0
 40
7.0
 40
8.0
 40
8.0
 40
8.0
 40
9.0
 40
9.0
 40
9.0
 40
10.0
 40
10.0
 40
10.0
 40
11.0
 40
11.0
 40
11.0
 40
11.0
 10
1.5716525607638887
 20
2.4874450683593747
 10
2.5493706597222219
 20
2.4874450683593747
 10
3.0461534288194443
 20
1.8819695366753471
 10
3.0461534288194443
 20
1.2456604003906249
 10
3.0461534288194443
 20
0.8188130696614583
 10
2.8287679036458329
 20
0.3532084147135416
 10
2.2079616970486109
 20
0.065887451171875
 10
2.2079616970486109
 20
0.065887451171875
 10
2.2079616970486109
 20
0.042633056640625
 10
2.2079616970486109
 20
0.042633056640625
 10
2.8366916232638886
 20
-0.2055860731336806
 10
3.2246093749999996
 20
-0.6558600531684027
 10
3.2246093749999996
 20
-1.2611633300781249
 10
3.2246093749999996
 20
-2.145863850911458
 10
2.4718560112847219
 20
-2.7280849880642357
 10
1.5096408420138887
 20
-2.7280849880642357
 10
0.4540635850694444
 20
-2.7280849880642357
 10
-0.1822455512152778
 20
-2.107106526692708
 10
-0.1822455512152778
 20
-1.3698560926649304
 10
-0.1822455512152778
 20
-0.7333747016059027
 10
0.1977484809027778
 20
-0.2755215115017361
 10
0.8109754774305555
 20
-0.011627197265625
 10
0.8109754774305555
 20
-0.011627197265625
 10
0.8109754774305555
 20
0.011627197265625
 10
0.8109754774305555
 20
0.011627197265625
 10
0.2446017795138889
 20
0.2755215115017361
 10
0.0037896050347222
 20
0.7101203070746527
 10
0.0037896050347222
 20
1.1447191026475694
 10
0.0037896050347222
 20
1.9441535101996525
 10
0.6790283203124999
 20
2.4874450683593747
 10
1.5637288411458332
 20
2.4874450683593747
 10
1.5637288411458332
 20
2.4874450683593747
 10
1.5716525607638887
 20
2.4874450683593747
 10
1.5716525607638887
 20
2.4874450683593747
 97
        0
 75
     0
 76
     1
 98
        1
 10
0.0
 20
0.0
  0
HATCH
  5
6C
100
AcDbEntity
  8
LAYER_1
 62
     7
100
AcDbHatch
 10
0.0
 20
0.0
 30
0.0
210
0.0
220
0.0
230
1.0
  2
SOLID
 70
     1
 71
     0
 91
        1
 92
        1
 93
        1
 72
     4
 94
        3
 73
     0
 74
     0
 95
       50
 96
       46
 40
0.0
 40
0.0
 40
0.0
 40
0.0
 40
1.0
 40
1.0
 40
1.0
 40
2.0
 40
2.0
 40
2.0
 40
3.0
 40
3.0
 40
3.0
 40
4.0
 40
4.0
 40
4.0
 40
5.0
 40
5.0
 40
5.0
 40
6.0
 40
6.0
 40
6.0
 40
7.0
 40
7.0
 40
7.0
 40
8.0
 40
8.0
 40
8.0
 40
9.0
 40
9.0
 40
9.0
 40
10.0
 40
10.0
 40
10.0
 40
11.0
 40
11.0
 40
11.0
 40
12.0
 40
12.0
 40
12.0
 40
13.0
 40
13.0
 40
13.0
 40
14.0
 40
14.0
 40
14.0
 40
15.0
 40
15.0
 40
15.0
 40
15.0
 10
6.8722764756944441
 20
1.8277092827690971
 10
6.8722764756944441
 20
1.8277092827690971
 10
4.9475016276041659
 20
1.8277092827690971
 10
4.9475016276041659
 20
1.8277092827690971
 10
4.9475016276041659
 20
1.8277092827690971
 10
4.7535427517361111
 20
0.5471672905815972
 10
4.7535427517361111
 20
0.5471672905815972
 10
4.8699869791666659
 20
0.5626702202690972
 10
4.9785074869791659
 20
0.5781731499565972
 10
5.1648871527777773
 20
0.5781731499565972
 10
5.5607286241319436
 20
0.5781731499565972
 10
5.9410671657986107
 20
0.4927347819010416
 10
6.2514702690972213
 20
0.3065273708767361
 10
6.6473117404513884
 20
0.0893141004774305
 10
6.9732177734374989
 20
-0.3532084147135416
 10
6.9732177734374989
 20
-1.0050204806857639
 10
6.9732177734374989
 20
-1.9906622992621525
 10
6.1894585503472213
 20
-2.7280849880642357
 10
5.0949517144097216
 20
-2.7280849880642357
 10
4.5440809461805554
 20
-2.7280849880642357
 10
4.0862277560763882
 20
-2.5727111816406247
 10
3.8378363715277772
 20
-2.417509629991319
 10
3.8378363715277772
 20
-2.417509629991319
 10
4.0083685980902777
 20
-1.8976447211371525
 10
4.0083685980902777
 20
-1.8976447211371525
 10
4.2181749131944439
 20
-2.021840413411458
 10
4.6295193142361111
 20
-2.1770419650607638
 10
5.0949517144097216
 20
-2.1770419650607638
 10
5.731605360243055
 20
-2.1770419650607638
 10
6.290399848090277
 20
-1.7579460991753471
 10
6.2824761284722213
 20
-1.0749559190538194
 10
6.2824761284722213
 20
-0.4074686686197916
 10
5.840125868055555
 20
0.050384521484375
 10
4.8389811197916659
 20
0.050384521484375
 10
4.5440809461805554
 20
0.050384521484375
 10
4.3187717013888882
 20
0.027130126953125
 10
4.1327365451388882
 20
-0.003875732421875
 10
4.1327365451388882
 20
-0.003875732421875
 10
4.4586425781249996
 20
2.402006700303819
 10
4.4586425781249996
 20
2.402006700303819
 10
4.4586425781249996
 20
2.402006700303819
 10
6.8722764756944441
 20
2.402006700303819
 10
6.8722764756944441
 20
2.402006700303819
 10
6.8722764756944441
 20
2.402006700303819
 10
6.8722764756944441
 20
1.8277092827690971
 10
6.8722764756944441
 20
1.8277092827690971
 97
        0
 75
     0
 76
     1
 98
        1
 10
0.0
 20
0.0
  0
HATCH
  5
6B
100
AcDbEntity
  8
LAYER_1
 62
     7
100
AcDbHatch
 10
0.0
 20
0.0
 30
0.0
210
0.0
220
0.0
230
1.0
  2
SOLID
 70
     1
 71
     0
 91
        2
 92
        1
 93
        1
 72
     4
 94
        3
 73
     0
 74
     0
 95
       17
 96
       13
 40
0.0
 40
0.0
 40
0.0
 40
0.0
 40
1.0
 40
1.0
 40
1.0
 40
2.0
 40
2.0
 40
2.0
 40
3.0
 40
3.0
 40
3.0
 40
4.0
 40
4.0
 40
4.0
 40
4.0
 10
9.7127577039930539
 20
2.7280849880642357
 10
9.7127577039930539
 20
2.7280849880642357
 10
9.5887342664930539
 20
0.8653218587239583
 10
9.5887342664930539
 20
0.8653218587239583
 10
9.5887342664930539
 20
0.8653218587239583
 10
9.1694661458333329
 20
0.8653218587239583
 10
9.1694661458333329
 20
0.8653218587239583
 10
9.1694661458333329
 20
0.8653218587239583
 10
9.0454427083333329
 20
2.7280849880642357
 10
9.0454427083333329
 20
2.7280849880642357
 10
9.0454427083333329
 20
2.7280849880642357
 10
9.7127577039930539
 20
2.7280849880642357
 10
9.7127577039930539
 20
2.7280849880642357
 97
        0
 92
        1
 93
        1
 72
     4
 94
        3
 73
     0
 74
     0
 95
       17
 96
       13
 40
0.0
 40
0.0
 40
0.0
 40
0.0
 40
1.0
 40
1.0
 40
1.0
 40
2.0
 40
2.0
 40
2.0
 40
3.0
 40
3.0
 40
3.0
 40
4.0
 40
4.0
 40
4.0
 40
4.0
 10
8.5562391493055543
 20
2.7280849880642357
 10
8.5562391493055543
 20
2.7280849880642357
 10
8.4322157118055543
 20
0.8653218587239583
 10
8.4322157118055543
 20
0.8653218587239583
 10
8.4322157118055543
 20
0.8653218587239583
 10
8.0129475911458332
 20
0.8653218587239583
 10
8.0129475911458332
 20
0.8653218587239583
 10
8.0129475911458332
 20
0.8653218587239583
 10
7.8889241536458323
 20
2.7280849880642357
 10
7.8889241536458323
 20
2.7280849880642357
 10
7.8889241536458323
 20
2.7280849880642357
 10
8.5562391493055543
 20
2.7280849880642357
 10
8.5562391493055543
 20
2.7280849880642357
 97
        0
 75
     0
 76
     1
 98
        1
 10
0.0
 20
0.0
  0
ENDBLK
  5
71
100
AcDbEntity
  8
LAYER_1
100
AcDbBlockEnd
  0
BLOCK
  5
76
100
AcDbEntity
  8
LAYER_1
 62
     7
100
AcDbBlockBegin
  2
AI9-BLK4
 70
     0
 10
0.0
 20
0.0
 30
0.0
  3
AI9-BLK4
  1

  0
HATCH
  5
7C
100
AcDbEntity
  8
LAYER_1
 62
     7
100
AcDbHatch
 10
0.0
 20
0.0
 30
0.0
210
0.0
220
0.0
230
1.0
  2
SOLID
 70
     1
 71
     0
 91
        1
 92
        1
 93
        1
 72
     4
 94
        3
 73
     0
 74
     0
 95
       47
 96
       43
 40
0.0
 40
0.0
 40
0.0
 40
0.0
 40
1.0
 40
1.0
 40
1.0
 40
2.0
 40
2.0
 40
2.0
 40
3.0
 40
3.0
 40
3.0
 40
4.0
 40
4.0
 40
4.0
 40
5.0
 40
5.0
 40
5.0
 40
6.0
 40
6.0
 40
6.0
 40
7.0
 40
7.0
 40
7.0
 40
8.0
 40
8.0
 40
8.0
 40
9.0
 40
9.0
 40
9.0
 40
10.0
 40
10.0
 40
10.0
 40
11.0
 40
11.0
 40
11.0
 40
12.0
 40
12.0
 40
12.0
 40
13.0
 40
13.0
 40
13.0
 40
14.0
 40
14.0
 40
14.0
 40
14.0
 10
-9.7012166341145818
 20
-2.6426466200086804
 10
-9.7012166341145818
 20
-2.6426466200086804
 10
-9.7012166341145818
 20
-2.2235507541232638
 10
-9.7012166341145818
 20
-2.2235507541232638
 10
-9.7012166341145818
 20
-2.2235507541232638
 10
-9.1656765407986107
 20
-1.7035135904947916
 10
-9.1656765407986107
 20
-1.7035135904947916
 10
-7.8772108289930545
 20
-0.4772318522135416
 10
-7.2874104817708325
 20
0.1745802137586806
 10
-7.2874104817708325
 20
0.9352572970920138
 10
-7.2874104817708325
 20
1.4473707411024304
 10
-7.5280504014756939
 20
1.9208991156684025
 10
-8.2808037651909707
 20
1.9208991156684025
 10
-8.7388292100694436
 20
1.9208991156684025
 10
-9.118995496961805
 20
1.6880106608072916
 10
-9.3518839518229164
 20
1.4940517849392361
 10
-9.3518839518229164
 20
1.4940517849392361
 10
-9.5692694769965261
 20
1.9751593695746525
 10
-9.5692694769965261
 20
1.9751593695746525
 10
-9.2276882595486107
 20
2.2623080783420138
 10
-8.7231540256076379
 20
2.4874450683593747
 10
-8.1411051432291668
 20
2.4874450683593747
 10
-7.0624457465277768
 20
2.4874450683593747
 10
-6.6044203016493048
 20
1.7422709147135416
 10
-6.6044203016493048
 20
1.0205234103732639
 10
-6.6044203016493048
 20
0.0893141004774305
 10
-7.2796590169270825
 20
-0.6636115180121527
 10
-8.3429877387152764
 20
-1.6880106608072916
 10
-8.3429877387152764
 20
-1.6880106608072916
 10
-8.7388292100694436
 20
-2.060597737630208
 10
-8.7388292100694436
 20
-2.060597737630208
 10
-8.7388292100694436
 20
-2.060597737630208
 10
-8.7388292100694436
 20
-2.076100667317708
 10
-8.7388292100694436
 20
-2.076100667317708
 10
-8.7388292100694436
 20
-2.076100667317708
 10
-6.4800523546006943
 20
-2.076100667317708
 10
-6.4800523546006943
 20
-2.076100667317708
 10
-6.4800523546006943
 20
-2.076100667317708
 10
-6.4800523546006943
 20
-2.6426466200086804
 10
-6.4800523546006943
 20
-2.6426466200086804
 10
-6.4800523546006943
 20
-2.6426466200086804
 10
-9.7012166341145818
 20
-2.6426466200086804
 10
-9.7012166341145818
 20
-2.6426466200086804
 97
        0
 75
     0
 76
     1
 98
        1
 10
0.0
 20
0.0
  0
HATCH
  5
7B
100
AcDbEntity
  8
LAYER_1
 62
     7
100
AcDbHatch
 10
0.0
 20
0.0
 30
0.0
210
0.0
220
0.0
230
1.0
  2
SOLID
 70
     1
 71
     0
 91
        1
 92
        1
 93
        1
 72
     4
 94
        3
 73
     0
 74
     0
 95
       20
 96
       16
 40
0.0
 40
0.0
 40
0.0
 40
0.0
 40
1.0
 40
1.0
 40
1.0
 40
2.0
 40
2.0
 40
2.0
 40
3.0
 40
3.0
 40
3.0
 40
4.0
 40
4.0
 40
4.0
 40
5.0
 40
5.0
 40
5.0
 40
5.0
 10
-5.2153578016493052
 20
-2.7280849880642357
 10
-5.4792521158854166
 20
-2.7280849880642357
 10
-5.6656317816840271
 20
-2.5184509277343747
 10
-5.6656317816840271
 20
-2.2390536838107638
 10
-5.6656317816840271
 20
-1.9596564398871525
 10
-5.4713283962673609
 20
-1.7501946343315971
 10
-5.1998548719618052
 20
-1.7501946343315971
 10
-4.9283813476562495
 20
-1.7501946343315971
 10
-4.7416571723090275
 20
-1.9519049750434025
 10
-4.7416571723090275
 20
-2.2390536838107638
 10
-4.7416571723090275
 20
-2.5184509277343747
 10
-4.9283813476562495
 20
-2.7280849880642357
 10
-5.2074340820312495
 20
-2.7280849880642357
 10
-5.2074340820312495
 20
-2.7280849880642357
 10
-5.2153578016493052
 20
-2.7280849880642357
 10
-5.2153578016493052
 20
-2.7280849880642357
 97
        0
 75
     0
 76
     1
 98
        1
 10
0.0
 20
0.0
  0
HATCH
  5
7A
100
AcDbEntity
  8
LAYER_1
 62
     7
100
AcDbHatch
 10
0.0
 20
0.0
 30
0.0
210
0.0
220
0.0
230
1.0
  2
SOLID
 70
     1
 71
     0
 91
        1
 92
        1
 93
        1
 72
     4
 94
        3
 73
     0
 74
     0
 95
       29
 96
       25
 40
0.0
 40
0.0
 40
0.0
 40
0.0
 40
1.0
 40
1.0
 40
1.0
 40
2.0
 40
2.0
 40
2.0
 40
3.0
 40
3.0
 40
3.0
 40
4.0
 40
4.0
 40
4.0
 40
5.0
 40
5.0
 40
5.0
 40
6.0
 40
6.0
 40
6.0
 40
7.0
 40
7.0
 40
7.0
 40
8.0
 40
8.0
 40
8.0
 40
8.0
 10
-2.6311916775173607
 20
1.7656975640190971
 10
-2.6311916775173607
 20
1.7656975640190971
 10
-2.6463500976562497
 20
1.7656975640190971
 10
-2.6463500976562497
 20
1.7656975640190971
 10
-2.6463500976562497
 20
1.7656975640190971
 10
-3.5234714084201384
 20
1.2921691894531249
 10
-3.5234714084201384
 20
1.2921691894531249
 10
-3.5234714084201384
 20
1.2921691894531249
 10
-3.6554185655381941
 20
1.8122063530815971
 10
-3.6554185655381941
 20
1.8122063530815971
 10
-3.6554185655381941
 20
1.8122063530815971
 10
-2.5533325195312497
 20
2.402006700303819
 10
-2.5533325195312497
 20
2.402006700303819
 10
-2.5533325195312497
 20
2.402006700303819
 10
-1.9711113823784721
 20
2.402006700303819
 10
-1.9711113823784721
 20
2.402006700303819
 10
-1.9711113823784721
 20
2.402006700303819
 10
-1.9711113823784721
 20
-2.6426466200086804
 10
-1.9711113823784721
 20
-2.6426466200086804
 10
-1.9711113823784721
 20
-2.6426466200086804
 10
-2.6311916775173607
 20
-2.6426466200086804
 10
-2.6311916775173607
 20
-2.6426466200086804
 10
-2.6311916775173607
 20
-2.6426466200086804
 10
-2.6311916775173607
 20
1.7656975640190971
 10
-2.6311916775173607
 20
1.7656975640190971
 97
        0
 75
     0
 76
     1
 98
        1
 10
0.0
 20
0.0
  0
HATCH
  5
79
100
AcDbEntity
  8
LAYER_1
 62
     7
100
AcDbHatch
 10
0.0
 20
0.0
 30
0.0
210
0.0
220
0.0
230
1.0
  2
SOLID
 70
     1
 71
     0
 91
        1
 92
        1
 93
        1
 72
     4
 94
        3
 73
     0
 74
     0
 95
       59
 96
       55
 40
0.0
 40
0.0
 40
0.0
 40
0.0
 40
1.0
 40
1.0
 40
1.0
 40
2.0
 40
2.0
 40
2.0
 40
3.0
 40
3.0
 40
3.0
 40
4.0
 40
4.0
 40
4.0
 40
5.0
 40
5.0
 40
5.0
 40
6.0
 40
6.0
 40
6.0
 40
7.0
 40
7.0
 40
7.0
 40
8.0
 40
8.0
 40
8.0
 40
9.0
 40
9.0
 40
9.0
 40
10.0
 40
10.0
 40
10.0
 40
11.0
 40
11.0
 40
11.0
 40
12.0
 40
12.0
 40
12.0
 40
13.0
 40
13.0
 40
13.0
 40
14.0
 40
14.0
 40
14.0
 40
15.0
 40
15.0
 40
15.0
 40
16.0
 40
16.0
 40
16.0
 40
17.0
 40
17.0
 40
17.0
 40
18.0
 40
18.0
 40
18.0
 40
18.0
 10
0.0311781141493056
 20
-1.8664666069878471
 10
0.22479248046875
 20
-1.9829108344184025
 10
0.6671427408854166
 20
-2.1770419650607638
 10
1.1487670898437499
 20
-2.1770419650607638
 10
2.0176201714409721
 20
-2.1770419650607638
 10
2.297361924913194
 20
-1.6259989420572916
 10
2.2894382052951388
 20
-1.1991516113281249
 10
2.281514485677083
 20
-0.4929070366753472
 10
1.6452053493923611
 20
-0.1900831434461806
 10
0.9854695638020833
 20
-0.1900831434461806
 10
0.9854695638020833
 20
-0.1900831434461806
 10
0.6051310221354166
 20
-0.1900831434461806
 10
0.6051310221354166
 20
-0.1900831434461806
 10
0.6051310221354166
 20
-0.1900831434461806
 10
0.6051310221354166
 20
0.3220303005642361
 10
0.6051310221354166
 20
0.3220303005642361
 10
0.6051310221354166
 20
0.3220303005642361
 10
0.9854695638020833
 20
0.3220303005642361
 10
0.9854695638020833
 20
0.3220303005642361
 10
1.4822523328993054
 20
0.3220303005642361
 10
2.110982259114583
 20
0.5781731499565972
 10
2.110982259114583
 20
1.1757249620225694
 10
2.110982259114583
 20
1.5793178982204861
 10
1.8550116644965275
 20
1.9364020453559025
 10
1.2259372287326389
 20
1.9364020453559025
 10
0.8225165473090277
 20
1.9364020453559025
 10
0.4345987955729166
 20
1.7579460991753471
 10
0.2172132703993056
 20
1.6025722927517361
 10
0.2172132703993056
 20
1.6025722927517361
 10
0.0311781141493056
 20
2.099355061848958
 10
0.0311781141493056
 20
2.099355061848958
 10
0.3026516384548611
 20
2.2933139377170138
 10
0.8145928276909722
 20
2.4874450683593747
 10
1.3582288953993054
 20
2.4874450683593747
 10
2.3514499240451388
 20
2.4874450683593747
 10
2.8017239040798607
 20
1.8976447211371525
 10
2.8017239040798607
 20
1.2844177246093749
 10
2.8017239040798607
 20
0.7566290961371527
 10
2.483397081163194
 20
0.3142788357204861
 10
1.8701700846354166
 20
0.0893141004774305
 10
1.8701700846354166
 20
0.0893141004774305
 10
1.8701700846354166
 20
0.0738111707899305
 10
1.8701700846354166
 20
0.0738111707899305
 10
2.4909762912326388
 20
-0.042633056640625
 10
2.9956827799479164
 20
-0.5084099663628472
 10
2.9956827799479164
 20
-1.2146545410156249
 10
2.9956827799479164
 20
-2.021840413411458
 10
2.359373643663194
 20
-2.7280849880642357
 10
1.1563462999131944
 20
-2.7280849880642357
 10
0.5899726019965277
 20
-2.7280849880642357
 10
0.0931898328993055
 20
-2.5494567871093747
 10
-0.1555460611979166
 20
-2.386503770616319
 10
-0.1555460611979166
 20
-2.386503770616319
 10
0.0311781141493056
 20
-1.8664666069878471
 10
0.0311781141493056
 20
-1.8664666069878471
 97
        0
 75
     0
 76
     1
 98
        1
 10
0.0
 20
0.0
  0
HATCH
  5
78
100
AcDbEntity
  8
LAYER_1
 62
     7
100
AcDbHatch
 10
0.0
 20
0.0
 30
0.0
210
0.0
220
0.0
230
1.0
  2
SOLID
 70
     1
 71
     0
 91
        1
 92
        1
 93
        1
 72
     4
 94
        3
 73
     0
 74
     0
 95
       50
 96
       46
 40
0.0
 40
0.0
 40
0.0
 40
0.0
 40
1.0
 40
1.0
 40
1.0
 40
2.0
 40
2.0
 40
2.0
 40
3.0
 40
3.0
 40
3.0
 40
4.0
 40
4.0
 40
4.0
 40
5.0
 40
5.0
 40
5.0
 40
6.0
 40
6.0
 40
6.0
 40
7.0
 40
7.0
 40
7.0
 40
8.0
 40
8.0
 40
8.0
 40
9.0
 40
9.0
 40
9.0
 40
10.0
 40
10.0
 40
10.0
 40
11.0
 40
11.0
 40
11.0
 40
12.0
 40
12.0
 40
12.0
 40
13.0
 40
13.0
 40
13.0
 40
14.0
 40
14.0
 40
14.0
 40
15.0
 40
15.0
 40
15.0
 40
15.0
 10
6.860735405815972
 20
1.8277092827690971
 10
6.860735405815972
 20
1.8277092827690971
 10
4.9359605577256938
 20
1.8277092827690971
 10
4.9359605577256938
 20
1.8277092827690971
 10
4.9359605577256938
 20
1.8277092827690971
 10
4.742001681857638
 20
0.5471672905815972
 10
4.742001681857638
 20
0.5471672905815972
 10
4.8581013997395832
 20
0.5626702202690972
 10
4.9669664171006938
 20
0.5781731499565972
 10
5.1530015733506938
 20
0.5781731499565972
 10
5.5488430447048609
 20
0.5781731499565972
 10
5.9291815863715271
 20
0.4927347819010416
 10
6.2395846896701386
 20
0.3065273708767361
 10
6.6354261610243048
 20
0.0893141004774305
 10
6.9613321940104163
 20
-0.3532084147135416
 10
6.9613321940104163
 20
-1.0050204806857639
 10
6.9613321940104163
 20
-1.9906622992621525
 10
6.1775729709201386
 20
-2.7280849880642357
 10
5.0834106445312495
 20
-2.7280849880642357
 10
4.5321953667534718
 20
-2.7280849880642357
 10
4.0743421766493055
 20
-2.5727111816406247
 10
3.8259507921006941
 20
-2.417509629991319
 10
3.8259507921006941
 20
-2.417509629991319
 10
3.9968275282118051
 20
-1.8976447211371525
 10
3.9968275282118051
 20
-1.8976447211371525
 10
4.2062893337673604
 20
-2.021840413411458
 10
4.6176337348090275
 20
-2.1770419650607638
 10
5.0834106445312495
 20
-2.1770419650607638
 10
5.7197197808159714
 20
-2.1770419650607638
 10
6.2785142686631943
 20
-1.7579460991753471
 10
6.2705905490451386
 20
-1.0749559190538194
 10
6.2705905490451386
 20
-0.4074686686197916
 10
5.8282402886284714
 20
0.050384521484375
 10
4.8270955403645832
 20
0.050384521484375
 10
4.5321953667534718
 20
0.050384521484375
 10
4.3072306315104161
 20
0.027130126953125
 10
4.1208509657118055
 20
-0.003875732421875
 10
4.1208509657118055
 20
-0.003875732421875
 10
4.4467569986979161
 20
2.402006700303819
 10
4.4467569986979161
 20
2.402006700303819
 10
4.4467569986979161
 20
2.402006700303819
 10
6.860735405815972
 20
2.402006700303819
 10
6.860735405815972
 20
2.402006700303819
 10
6.860735405815972
 20
2.402006700303819
 10
6.860735405815972
 20
1.8277092827690971
 10
6.860735405815972
 20
1.8277092827690971
 97
        0
 75
     0
 76
     1
 98
        1
 10
0.0
 20
0.0
  0
HATCH
  5
77
100
AcDbEntity
  8
LAYER_1
 62
     7
100
AcDbHatch
 10
0.0
 20
0.0
 30
0.0
210
0.0
220
0.0
230
1.0
  2
SOLID
 70
     1
 71
     0
 91
        2
 92
        1
 93
        1
 72
     4
 94
        3
 73
     0
 74
     0
 95
       17
 96
       13
 40
0.0
 40
0.0
 40
0.0
 40
0.0
 40
1.0
 40
1.0
 40
1.0
 40
2.0
 40
2.0
 40
2.0
 40
3.0
 40
3.0
 40
3.0
 40
4.0
 40
4.0
 40
4.0
 40
4.0
 10
9.7012166341145818
 20
2.7280849880642357
 10
9.7012166341145818
 20
2.7280849880642357
 10
9.5768486870659721
 20
0.8653218587239583
 10
9.5768486870659721
 20
0.8653218587239583
 10
9.5768486870659721
 20
0.8653218587239583
 10
9.1579250759548607
 20
0.8653218587239583
 10
9.1579250759548607
 20
0.8653218587239583
 10
9.1579250759548607
 20
0.8653218587239583
 10
9.0335571289062493
 20
2.7280849880642357
 10
9.0335571289062493
 20
2.7280849880642357
 10
9.0335571289062493
 20
2.7280849880642357
 10
9.7012166341145818
 20
2.7280849880642357
 10
9.7012166341145818
 20
2.7280849880642357
 97
        0
 92
        1
 93
        1
 72
     4
 94
        3
 73
     0
 74
     0
 95
       17
 96
       13
 40
0.0
 40
0.0
 40
0.0
 40
0.0
 40
1.0
 40
1.0
 40
1.0
 40
2.0
 40
2.0
 40
2.0
 40
3.0
 40
3.0
 40
3.0
 40
4.0
 40
4.0
 40
4.0
 40
4.0
 10
8.5446980794270821
 20
2.7280849880642357
 10
8.5446980794270821
 20
2.7280849880642357
 10
8.4203301323784707
 20
0.8653218587239583
 10
8.4203301323784707
 20
0.8653218587239583
 10
8.4203301323784707
 20
0.8653218587239583
 10
8.0014065212673611
 20
0.8653218587239583
 10
8.0014065212673611
 20
0.8653218587239583
 10
8.0014065212673611
 20
0.8653218587239583
 10
7.8770385742187496
 20
2.7280849880642357
 10
7.8770385742187496
 20
2.7280849880642357
 10
7.8770385742187496
 20
2.7280849880642357
 10
8.5446980794270821
 20
2.7280849880642357
 10
8.5446980794270821
 20
2.7280849880642357
 97
        0
 75
     0
 76
     1
 98
        1
 10
0.0
 20
0.0
  0
ENDBLK
  5
7D
100
AcDbEntity
  8
LAYER_1
100
AcDbBlockEnd
  0
ENDSEC
  0
SECTION
  2
ENTITIES
  0
SPLINE
  5
9A
100
AcDbEntity
  8
LAYER_1
 62
     7
100
AcDbSpline
210
0.0
220
0.0
230
1.0
 70
     8
 71
     3
 72
    29
 73
    25
 74
     0
 42
0.00000001
 43
0.00000001
 40
0.0
 40
0.0
 40
0.0
 40
0.0
 40
1.0
 40
1.0
 40
1.0
 40
2.0
 40
2.0
 40
2.0
 40
3.0
 40
3.0
 40
3.0
 40
4.0
 40
4.0
 40
4.0
 40
5.0
 40
5.0
 40
5.0
 40
6.0
 40
6.0
 40
6.0
 40
7.0
 40
7.0
 40
7.0
 40
8.0
 40
8.0
 40
8.0
 40
8.0
 10
68.279553222656247
 20
-174.25775282118053
 30
0.0
 10
68.279553222656247
 20
-174.25775282118053
 30
0.0
 10
134.33736436631943
 20
-174.09617784288193
 30
0.0
 10
135.79463975694443
 20
-174.09617784288193
 30
0.0
 10
137.73767361111109
 20
-173.77233886718747
 30
0.0
 10
139.3561794704861
 20
-172.4766384548611
 30
0.0
 10
139.3561794704861
 20
-170.04819064670139
 30
0.0
 10
139.3561794704861
 20
-167.61974283854164
 30
0.0
 10
139.42990451388889
 20
-60.599574110243047
 30
0.0
 10
139.42990451388889
 20
-58.656884765624994
 30
0.0
 10
138.9441460503472
 20
-55.904597981770827
 30
0.0
 10
138.22343207465278
 20
-53.961908637152774
 30
0.0
 10
134.17544487847221
 20
-53.799989149305553
 30
0.0
 10
130.12814670138889
 20
-53.638069661458331
 30
0.0
 10
72.48928765190972
 20
-54.123483615451384
 30
0.0
 10
69.574909125434019
 20
-54.123483615451384
 30
0.0
 10
66.660530598958331
 20
-54.123483615451384
 30
0.0
 10
64.069991048177073
 20
-54.77116156684027
 30
0.0
 10
64.069991048177073
 20
-59.466482204861109
 30
0.0
 10
64.069991048177073
 20
-64.16180284288194
 30
0.0
 10
63.908071560329859
 20
-167.29624837239581
 30
0.0
 10
63.908071560329859
 20
-169.56277669270833
 30
0.0
 10
63.908071560329859
 20
-171.82930501302081
 30
0.0
 10
65.527094184027774
 20
-174.25775282118053
 30
0.0
 10
68.279553222656247
 20
-174.25775282118053
 30
0.0
  0
SPLINE
  5
99
100
AcDbEntity
  8
LAYER_1
 62
     7
100
AcDbSpline
210
0.0
220
0.0
230
1.0
 70
     8
 71
     3
 72
    29
 73
    25
 74
     0
 42
0.00000001
 43
0.00000001
 40
0.0
 40
0.0
 40
0.0
 40
0.0
 40
1.0
 40
1.0
 40
1.0
 40
2.0
 40
2.0
 40
2.0
 40
3.0
 40
3.0
 40
3.0
 40
4.0
 40
4.0
 40
4.0
 40
5.0
 40
5.0
 40
5.0
 40
6.0
 40
6.0
 40
6.0
 40
7.0
 40
7.0
 40
7.0
 40
8.0
 40
8.0
 40
8.0
 40
8.0
 10
67.867347547743051
 20
-171.84859754774303
 30
0.0
 10
67.867347547743051
 20
-171.84859754774303
 30
0.0
 10
133.98355305989583
 20
-171.69356825086803
 30
0.0
 10
135.38226182725694
 20
-171.69356825086803
 30
0.0
 10
136.35377875434025
 20
-171.69356825086803
 30
0.0
 10
137.84722764756944
 20
-171.24777289496527
 30
0.0
 10
137.84722764756944
 20
-169.30473904079861
 30
0.0
 10
137.84722764756944
 20
-166.9734429253472
 30
0.0
 10
137.81105414496525
 20
-61.559377712673609
 30
0.0
 10
137.81105414496525
 20
-59.694203016493049
 30
0.0
 10
137.81105414496525
 20
-57.103835720486103
 30
0.0
 10
136.59596896701387
 20
-56.294238281249996
 30
0.0
 10
134.24916992187499
 20
-56.294238281249996
 30
0.0
 10
130.36069064670139
 20
-56.294238281249996
 30
0.0
 10
73.180718315972214
 20
-56.045502387152773
 30
0.0
 10
70.382956271701389
 20
-56.045502387152773
 30
0.0
 10
66.41024441189235
 20
-56.045502387152773
 30
0.0
 10
65.572397189670127
 20
-57.14138726128472
 30
0.0
 10
65.572397189670127
 20
-61.648950195312494
 30
0.0
 10
65.572397189670127
 20
-66.156513129340269
 30
0.0
 10
65.417023383246516
 20
-166.31956380208331
 30
0.0
 10
65.417023383246516
 20
-168.49514160156249
 30
0.0
 10
65.417023383246516
 20
-170.67106391059025
 30
0.0
 10
66.41024441189235
 20
-171.84859754774303
 30
0.0
 10
67.867347547743051
 20
-171.84859754774303
 30
0.0
  0
CIRCLE
  5
98
100
AcDbEntity
  8
LAYER_1
 62
     7
100
AcDbCircle
 10
124.5874
 20
-155.13799
 30
0.0
 40
4.938028
  0
CIRCLE
  5
97
100
AcDbEntity
  8
LAYER_1
 62
     7
100
AcDbCircle
 10
124.5874
 20
-138.105438
 30
0.0
 40
4.938028
  0
CIRCLE
  5
96
100
AcDbEntity
  8
LAYER_1
 62
     7
100
AcDbCircle
 10
124.5874
 20
-121.072885
 30
0.0
 40
4.938028
  0
CIRCLE
  5
95
100
AcDbEntity
  8
LAYER_1
 62
     7
100
AcDbCircle
 10
124.5874
 20
-104.040333
 30
0.0
 40
4.938028
  0
CIRCLE
  5
94
100
AcDbEntity
  8
LAYER_1
 62
     7
100
AcDbCircle
 10
124.5874
 20
-87.007781
 30
0.0
 40
4.938028
  0
CIRCLE
  5
93
100
AcDbEntity
  8
LAYER_1
 62
     7
100
AcDbCircle
 10
124.5874
 20
-69.975229
 30
0.0
 40
4.938028
  0
CIRCLE
  5
92
100
AcDbEntity
  8
LAYER_1
 62
     7
100
AcDbCircle
 10
109.09825
 20
-155.13799
 30
0.0
 40
4.938028
  0
CIRCLE
  5
91
100
AcDbEntity
  8
LAYER_1
 62
     7
100
AcDbCircle
 10
109.09825
 20
-138.105438
 30
0.0
 40
4.938028
  0
CIRCLE
  5
90
100
AcDbEntity
  8
LAYER_1
 62
     7
100
AcDbCircle
 10
109.09825
 20
-121.072885
 30
0.0
 40
4.938028
  0
CIRCLE
  5
8F
100
AcDbEntity
  8
LAYER_1
 62
     7
100
AcDbCircle
 10
109.09825
 20
-104.040333
 30
0.0
 40
4.938028
  0
CIRCLE
  5
8E
100
AcDbEntity
  8
LAYER_1
 62
     7
100
AcDbCircle
 10
109.09825
 20
-87.007781
 30
0.0
 40
4.938028
  0
CIRCLE
  5
8D
100
AcDbEntity
  8
LAYER_1
 62
     7
100
AcDbCircle
 10
109.09825
 20
-69.975229
 30
0.0
 40
4.938028
  0
CIRCLE
  5
8C
100
AcDbEntity
  8
LAYER_1
 62
     7
100
AcDbCircle
 10
93.609273
 20
-155.13799
 30
0.0
 40
4.938028
  0
CIRCLE
  5
8B
100
AcDbEntity
  8
LAYER_1
 62
     7
100
AcDbCircle
 10
93.609273
 20
-138.105438
 30
0.0
 40
4.938028
  0
CIRCLE
  5
8A
100
AcDbEntity
  8
LAYER_1
 62
     7
100
AcDbCircle
 10
93.609273
 20
-121.072885
 30
0.0
 40
4.938028
  0
CIRCLE
  5
89
100
AcDbEntity
  8
LAYER_1
 62
     7
100
AcDbCircle
 10
93.609273
 20
-104.040333
 30
0.0
 40
4.938028
  0
CIRCLE
  5
88
100
AcDbEntity
  8
LAYER_1
 62
     7
100
AcDbCircle
 10
93.609273
 20
-87.007781
 30
0.0
 40
4.938028
  0
CIRCLE
  5
87
100
AcDbEntity
  8
LAYER_1
 62
     7
100
AcDbCircle
 10
93.609273
 20
-69.975229
 30
0.0
 40
4.938028
  0
CIRCLE
  5
86
100
AcDbEntity
  8
LAYER_1
 62
     7
100
AcDbCircle
 10
78.120296
 20
-155.13799
 30
0.0
 40
4.938028
  0
CIRCLE
  5
85
100
AcDbEntity
  8
LAYER_1
 62
     7
100
AcDbCircle
 10
78.120296
 20
-138.105438
 30
0.0
 40
4.938028
  0
CIRCLE
  5
84
100
AcDbEntity
  8
LAYER_1
 62
     7
100
AcDbCircle
 10
78.120296
 20
-121.072885
 30
0.0
 40
4.938028
  0
CIRCLE
  5
83
100
AcDbEntity
  8
LAYER_1
 62
     7
100
AcDbCircle
 10
78.120296
 20
-104.040333
 30
0.0
 40
4.938028
  0
CIRCLE
  5
82
100
AcDbEntity
  8
LAYER_1
 62
     7
100
AcDbCircle
 10
78.120296
 20
-87.007781
 30
0.0
 40
4.938028
  0
CIRCLE
  5
81
100
AcDbEntity
  8
LAYER_1
 62
     7
100
AcDbCircle
 10
78.120296
 20
-69.975229
 30
0.0
 40
4.938028
  0
CIRCLE
  5
80
100
AcDbEntity
  8
LAYER_1
 62
     7
100
AcDbCircle
 10
116.763243
 20
-70.04327
 30
0.0
 40
0.910883
  0
LINE
  5
7F
100
AcDbEntity
  8
LAYER_1
 62
     7
100
AcDbLine
 10
64.143544
 20
-31.130572
 30
0.0
 11
64.143544
 21
-15.911518
 31
0.0
  0
LINE
  5
7E
100
AcDbEntity
  8
LAYER_1
 62
     7
100
AcDbLine
 10
139.267985
 20
-31.130572
 30
0.0
 11
139.267985
 21
-15.911518
 31
0.0
  0
INSERT
  5
75
100
AcDbEntity
  8
LAYER_1
 62
     7
100
AcDbBlockReference
  2
AI9-BLK4
 10
110.05926
 20
-23.232088
 30
0.0
  0
LINE
  5
73
100
AcDbEntity
  8
LAYER_1
 62
     7
100
AcDbLine
 10
155.465101
 20
-174.323899
 30
0.0
 11
170.846075
 21
-174.323899
 31
0.0
  0
LINE
  5
72
100
AcDbEntity
  8
LAYER_1
 62
     7
100
AcDbLine
 10
155.465101
 20
-53.703526
 30
0.0
 11
170.846075
 21
-53.703526
 31
0.0
  0
INSERT
  5
69
100
AcDbEntity
  8
LAYER_1
 62
     7
100
AcDbBlockReference
  2
AI9-BLK3
 10
170.568745
 20
-109.410462
 30
0.0
  0
LINE
  5
67
100
AcDbEntity
  8
LAYER_1
 62
     7
100
AcDbLine
 10
108.951489
 20
-65.24029
 30
0.0
 11
108.951489
 21
-59.89643
 31
0.0
  0
LINE
  5
66
100
AcDbEntity
  8
LAYER_1
 62
     7
100
AcDbLine
 10
124.696609
 20
-65.091806
 30
0.0
 11
124.696609
 21
-59.89643
 31
0.0
  0
MTEXT
  5
65
100
AcDbEntity
  8
LAYER_1
 62
     7
100
AcDbMText
 10
113.735808
 20
-65.361385
 30
0.0
 40
3.674769
 41
0.0
 71
     1
 72
     2
  1
\fMyriad Roman|b0|i0;
  7
STD
210
0.0
220
0.0
230
1.0
 11
0.0
 21
1.0
 31
0.0
  0
LINE
  5
64
100
AcDbEntity
  8
LAYER_1
 62
     7
100
AcDbLine
 10
65.374304
 20
-34.667307
 30
0.0
 11
65.374304
 21
-51.761871
 31
0.0
  0
LINE
  5
63
100
AcDbEntity
  8
LAYER_1
 62
     7
100
AcDbLine
 10
137.576443
 20
-34.667307
 30
0.0
 11
137.576443
 21
-51.761871
 31
0.0
  0
LINE
  5
62
100
AcDbEntity
  8
LAYER_1
 62
     7
100
AcDbLine
 10
139.750987
 20
-55.854127
 30
0.0
 11
155.496107
 21
-55.854127
 31
0.0
  0
LINE
  5
61
100
AcDbEntity
  8
LAYER_1
 62
     7
100
AcDbLine
 10
139.750987
 20
-171.69219
 30
0.0
 11
155.496107
 21
-171.69219
 31
0.0
  0
LINE
  5
60
100
AcDbEntity
  8
LAYER_1
 62
     7
100
AcDbLine
 10
129.593123
 20
-70.024494
 30
0.0
 11
133.933599
 21
-70.024494
 31
0.0
  0
LINE
  5
5F
100
AcDbEntity
  8
LAYER_1
 62
     7
100
AcDbLine
 10
129.741262
 20
-87.119058
 30
0.0
 11
134.527534
 21
-87.119058
 31
0.0
  0
LINE
  5
5E
100
AcDbEntity
  8
LAYER_1
 62
     7
100
AcDbLine
 10
88.541882
 20
-63.45952
 30
0.0
 11
88.541882
 21
-59.749669
 31
0.0
  0
LINE
  5
5D
100
AcDbEntity
  8
LAYER_1
 62
     7
100
AcDbLine
 10
98.43878
 20
-63.45952
 30
0.0
 11
98.43878
 21
-60.046464
 31
0.0
  0
LINE
  5
5C
100
AcDbEntity
  8
LAYER_1
 62
     7
100
AcDbLine
 10
129.479091
 20
-103.764209
 30
0.0
 11
137.576443
 21
-103.764209
 31
0.0
  0
LINE
  5
5B
100
AcDbEntity
  8
LAYER_1
 62
     7
100
AcDbLine
 10
129.479091
 20
-103.764209
 30
0.0
 11
129.479091
 21
-98.720417
 31
0.0
  0
SPLINE
  5
5A
100
AcDbEntity
  8
LAYER_1
 62
     7
100
AcDbSpline
210
0.0
220
0.0
230
1.0
 70
     8
 71
     3
 72
    35
 73
    31
 74
     0
 42
0.00000001
 43
0.00000001
 40
0.0
 40
0.0
 40
0.0
 40
0.0
 40
1.0
 40
1.0
 40
1.0
 40
2.0
 40
2.0
 40
2.0
 40
3.0
 40
3.0
 40
3.0
 40
4.0
 40
4.0
 40
4.0
 40
5.0
 40
5.0
 40
5.0
 40
6.0
 40
6.0
 40
6.0
 40
7.0
 40
7.0
 40
7.0
 40
8.0
 40
8.0
 40
8.0
 40
9.0
 40
9.0
 40
9.0
 40
10.0
 40
10.0
 40
10.0
 40
10.0
 10
57.053881835937496
 20
-216.92629394531249
 30
0.0
 10
57.053881835937496
 20
-216.92629394531249
 30
0.0
 10
56.936404079861106
 20
-219.86599392361109
 30
0.0
 10
56.936404079861106
 20
-219.86599392361109
 30
0.0
 10
56.936404079861106
 20
-219.86599392361109
 30
0.0
 10
57.171359592013886
 20
-221.74770507812497
 30
0.0
 10
57.171359592013886
 20
-221.74770507812497
 30
0.0
 10
57.171359592013886
 20
-221.74770507812497
 30
0.0
 10
57.876915147569441
 20
-223.74654947916665
 30
0.0
 10
59.052898491753467
 20
-224.33462727864583
 30
0.0
 10
60.228881835937493
 20
-224.45244954427082
 30
0.0
 10
148.18802625868054
 20
-225.27513834635414
 30
0.0
 10
148.89358181423609
 20
-225.15766059027777
 30
0.0
 10
149.59913736979166
 20
-225.04018283420137
 30
0.0
 10
151.71545952690971
 20
-224.56992730034719
 30
0.0
 10
151.83328179253471
 20
-222.45326063368054
 30
0.0
 10
151.9511040581597
 20
-220.33659396701387
 30
0.0
 10
151.71580403645831
 20
-219.51321614583333
 30
0.0
 10
151.71580403645831
 20
-219.51321614583333
 30
0.0
 10
151.71580403645831
 20
-219.51321614583333
 30
0.0
 10
151.83328179253471
 20
-218.92548285590277
 30
0.0
 10
151.12772623697916
 20
-218.69018283420138
 30
0.0
 10
150.42217068142361
 20
-218.45488281249999
 30
0.0
 10
142.42610405815972
 20
-216.45603841145831
 30
0.0
 10
141.60272623697915
 20
-216.22073838975692
 30
0.0
 10
140.77934841579861
 20
-215.98543836805553
 30
0.0
 10
58.700120713975686
 20
-215.27988281249998
 30
0.0
 10
58.700120713975686
 20
-215.27988281249998
 30
0.0
 10
58.700120713975686
 20
-215.27988281249998
 30
0.0
 10
57.053881835937496
 20
-215.2802273220486
 30
0.0
 10
57.053881835937496
 20
-216.92629394531249
 30
0.0
  0
SPLINE
  5
59
100
AcDbEntity
  8
LAYER_1
 62
     7
100
AcDbSpline
210
0.0
220
0.0
230
1.0
 70
     8
 71
     3
 72
    17
 73
    13
 74
     0
 42
0.00000001
 43
0.00000001
 40
0.0
 40
0.0
 40
0.0
 40
0.0
 40
1.0
 40
1.0
 40
1.0
 40
2.0
 40
2.0
 40
2.0
 40
3.0
 40
3.0
 40
3.0
 40
4.0
 40
4.0
 40
4.0
 40
4.0
 10
57.053881835937496
 20
-216.92629394531249
 30
0.0
 10
57.053881835937496
 20
-216.92629394531249
 30
0.0
 10
57.406487358940964
 20
-217.39689398871525
 30
0.0
 10
57.52413736979166
 20
-217.86714952256943
 30
0.0
 10
57.641787380642356
 20
-218.33740505642359
 30
0.0
 10
59.640804036458327
 20
-218.45488281249999
 30
0.0
 10
60.581659613715274
 20
-218.45488281249999
 30
0.0
 10
63.517742241753467
 20
-218.60164388020831
 30
0.0
 10
148.42332628038193
 20
-219.16043836805554
 30
0.0
 10
149.24635959201387
 20
-219.16043836805554
 30
0.0
 10
150.06939290364582
 20
-219.16043836805554
 30
0.0
 10
150.89242621527777
 20
-219.16043836805554
 30
0.0
 10
151.12772623697916
 20
-218.69018283420138
 30
0.0
  0
LINE
  5
58
100
AcDbEntity
  8
LAYER_1
 62
     7
100
AcDbLine
 10
151.363026
 20
-218.690183
 30
0.0
 11
160.535248
 21
-218.690183
 31
0.0
  0
LINE
  5
57
100
AcDbEntity
  8
LAYER_1
 62
     7
100
AcDbLine
 10
151.363026
 20
-225.275483
 30
0.0
 11
160.535248
 21
-225.275483
 31
0.0
  0
INSERT
  5
4E
100
AcDbEntity
  8
LAYER_1
 62
     7
100
AcDbBlockReference
  2
AI9-BLK2
 10
157.004198
 20
-222.667718
 30
0.0
  0
LINE
  5
4C
100
AcDbEntity
  8
LAYER_1
 62
     7
100
AcDbLine
 10
77.952003
 20
-64.943495
 30
0.0
 11
71.422514
 21
-64.943495
 31
0.0
  0
LINE
  5
4B
100
AcDbEntity
  8
LAYER_1
 62
     7
100
AcDbLine
 10
77.80352
 20
-64.795184
 30
0.0
 11
77.80352
 21
-56.039818
 31
0.0
  0
LINE
  5
4A
100
AcDbEntity
  8
LAYER_1
 62
     7
100
AcDbLine
 10
88.487967
 20
-63.311209
 30
0.0
 11
98.578824
 21
-63.311209
 31
0.0
  0
LINE
  5
49
100
AcDbEntity
  8
LAYER_1
 62
     7
100
AcDbLine
 10
108.966303
 20
-65.091979
 30
0.0
 11
124.992887
 21
-65.091979
 31
0.0
  0
LINE
  5
48
100
AcDbEntity
  8
LAYER_1
 62
     7
100
AcDbLine
 10
124.69592
 20
-160.064648
 30
0.0
 11
124.69592
 21
-171.63948
 31
0.0
  0
LINE
  5
47
100
AcDbEntity
  8
LAYER_1
 62
     7
100
AcDbLine
 10
124.547437
 20
-160.064648
 30
0.0
 11
118.314914
 21
-160.064648
 31
0.0
  0
LINE
  5
46
100
AcDbEntity
  8
LAYER_1
 62
     7
100
AcDbLine
 10
129.44464
 20
-69.987115
 30
0.0
 11
129.44464
 21
-86.904084
 31
0.0
  0
INSERT
  5
2F
100
AcDbEntity
  8
LAYER_1
 62
     7
100
AcDbBlockReference
  2
AI9-BLK1
 10
115.82256
 20
-249.918423
 30
0.0
  0
MTEXT
  5
2D
100
AcDbEntity
  8
LAYER_1
 62
     7
100
AcDbMText
 10
91.367033
 20
-59.573026
 30
0.0
 40
2.099868
 41
0.0
 71
     1
 72
     2
  1
\fMyriad Roman|b0|i0;.285 "        
  7
STD
210
0.0
220
0.0
230
1.0
 11
1.000001
 21
0.0
 31
0.0
  0
MTEXT
  5
2C
100
AcDbEntity
  8
LAYER_1
 62
     7
100
AcDbMText
 10
114.580086
 20
-60.517327
 30
0.0
 40
2.099868
 41
0.0
 71
     1
 72
     2
  1
\fMyriad Roman|b0|i0;.425"
  7
STD
210
0.0
220
0.0
230
1.0
 11
1.000001
 21
0.0
 31
0.0
  0
MTEXT
  5
2B
100
AcDbEntity
  8
LAYER_1
 62
     7
100
AcDbMText
 10
94.169274
 20
-40.080274
 30
0.0
 40
5.774636
 41
0.0
 71
     1
 72
     2
  1
\fMyriad Roman|b0|i0;2.012"
  7
STD
210
0.0
220
0.0
230
1.0
 11
1.000001
 21
0.0
 31
0.0
  0
MTEXT
  5
2A
100
AcDbEntity
  8
LAYER_1
 62
     7
100
AcDbMText
 10
131.243669
 20
-99.267933
 30
0.0
 40
2.099868
 41
0.0
 71
     1
 72
     2
  1
\fMyriad Roman|b0|i0;.211
  7
STD
210
0.0
220
0.0
230
1.0
 11
1.000001
 21
0.0
 31
0.0
  0
MTEXT
  5
29
100
AcDbEntity
  8
LAYER_1
 62
     7
100
AcDbMText
 10
141.005002
 20
-118.271883
 30
0.0
 40
5.774636
 41
0.0
 71
     1
 72
     2
  1
\fMyriad Roman|b0|i0;3.255"
  7
STD
210
0.0
220
0.0
230
1.0
 11
1.000001
 21
0.0
 31
0.0
  0
MTEXT
  5
28
100
AcDbEntity
  8
LAYER_1
 62
     7
100
AcDbMText
 10
74.235008
 20
-63.553571
 30
0.0
 40
2.099868
 41
0.0
 71
     1
 72
     2
  1
\fMyriad Roman|b0|i0;0.26"
  7
STD
210
0.0
220
0.0
230
1.0
 11
0.0
 21
1.0
 31
0.0
  0
MTEXT
  5
27
100
AcDbEntity
  8
LAYER_1
 62
     7
100
AcDbMText
 10
130.553271
 20
-78.167067
 30
0.0
 40
2.099868
 41
0.0
 71
     1
 72
     2
  1
\fMyriad Roman|b0|i0;.465"
  7
STD
210
0.0
220
0.0
230
1.0
 11
1.000001
 21
0.0
 31
0.0
  0
LINE
  5
26
100
AcDbEntity
  8
LAYER_1
 62
     7
100
AcDbLine
 10
70.899548
 20
-74.942712
 30
0.0
 11
77.900327
 21
-74.942712
 31
0.0
  0
LINE
  5
25
100
AcDbEntity
  8
LAYER_1
 62
     7
100
AcDbLine
 10
77.900327
 20
-82.042021
 30
0.0
 11
70.801019
 21
-82.042021
 31
0.0
  0
LINE
  5
24
100
AcDbEntity
  8
LAYER_1
 62
     7
100
AcDbLine
 10
77.900327
 20
-75.041242
 30
0.0
 11
77.900327
 21
-82.239252
 31
0.0
  0
MTEXT
  5
23
100
AcDbEntity
  8
LAYER_1
 62
     7
100
AcDbMText
 10
74.201246
 20
-80.282094
 30
0.0
 40
2.099868
 41
0.0
 71
     1
 72
     2
  1
\fMyriad Roman|b0|i0;0.2"
  7
STD
210
0.0
220
0.0
230
1.0
 11
0.0
 21
1.0
 31
0.0
  0
MTEXT
  5
22
100
AcDbEntity
  8
LAYER_1
 62
     7
100
AcDbMText
 10
120.777387
 20
-167.857454
 30
0.0
 40
2.099868
 41
0.0
 71
     1
 72
     2
  1
\fMyriad Roman|b0|i0;.34"
  7
STD
210
0.0
220
0.0
230
1.0
 11
0.0
 21
1.0
 31
0.0
  0
ENDSEC
  0
SECTION
  2
OBJECTS
  0
DICTIONARY
  5
19
100
AcDbDictionary
  3
ACAD_GROUP
350
1A
  3
ACAD_MLINESTYLE
350
1B
  0
DICTIONARY
  5
1A
102
{ACAD_REACTORS
330
19
102
}
100
AcDbDictionary
  0
DICTIONARY
  5
1B
102
{ACAD_REACTORS
330
19
102
}
100
AcDbDictionary
  3
STANDARD
350
1C
  0
MLINESTYLE
  5
1C
102
{ACAD_REACTORS
330
1B
102
}
100
AcDbMlineStyle
  2
STANDARD
 70
     0
  3

 62
     0
 51
90.0
 52
90.0
 71
     2
 49
0.5
 62
   256
  6
BYLAYER
 49
-0.5
 62
   256
  6
BYLAYER
  0
ENDSEC
  0
EOF
